Song name
# A B C D E F G H I J K L M N O P Q R S T U V W X Y Z

Omnia - Alive tab

song: Alive!
Album: Alive!
Artist: Omnia
website: http://www.omnia-neocelt.com/
tabbed by: Marloes Messemaker
Tuning: D A D G A D
this is the second tab i wrote. at the refrain i just made up my own rythm, because of 
various rythms which seem to be mixed together. I think there are various ways to play 
part.
At the intro is the second guitar playing something far more difficult, but i am too 
to try and tab it. Maybe someday.


Omnia - Alive!

intro : x 3

D  ------------5-5---------------5----------------5-----------------5------ |
A  ---------5------5----------5----5-----------5----5------------5----5---- |
G  ---0-------------------0----------------0-----------------0------------- |
D  ---5---------------5-3-------------5-----------------5-3--------------5- |
A  -------------------------------------6---------------------------------- |
D  ------------------------------------------------------------------------ |

 second guitar (optional)
D ---5------------------3---------------1-----------------3---------------- |
A ---5------------------3---------------1-----------------3---------------- |
G ---0------------------0---------------0-----------------0---------------- |
D ---5------------------3---------------1-----------------3---------------- |
A ---5------------------3---------------1-----------------3---------------- |
D ------------------------------------------------------------------------- |


  Chorus: x 2
D ---1--1--3----------1--1--3----------1--1--3----------1--1--3--3-3--3--5- |
A ---1--1--3----------1--1--3----------1--1--3----------1--1--3--3-3--3--5- |
G ---0--0--0----------0--0--0----------0--0--0----------0--0--0--0-0--0--0- |
D ---1--1--3----------1--1--3----------1--1--3----------1--1--3--3-3--3--5- |
A ---1--1--3----------1--1--3----------1--1--3----------1--1--3--3-3--3--5- |
D ------------------------------------------------------------------------- |


Intro Refrain:

D ---5----5-5----5-5----5-5----5-5----5-5----5-5----5-5--|
A ---5----5-5----5-5----5-5----5-5----5-5----5-5----5-5--|
G ---0----0-0----0-0----0-0----0-0----0-0----0-0----0-0--|
D ---5----5-5----5-5----5-5----5-5----5-5----5-5----5-5--|
A ---5----5-5----5-5----5-5----5-5----5-5----5-5----5-5--|
D -------------------------------------------------------|

D --5-5----5-5----5-5----5-5----5-5----5-5----5-5------|
A --5-5----5-5----5-5----5-5----5-5----5-5----5-5------|
G --0-0----0-0----0-0----0-0----0-0----0-0----0-0------|
D --5-5----5-5----5-5----5-5----5-5----5-5----5-5------|
A --5-5----5-5----5-5----5-5----5-5----5-5----5-5------|
D -----------------------------------------------------|

 REFRAIN: x 2

D ---5----5--5--5----5-5-5-5--5---3--3-3-3--3--3--3-3-3--3- |
A ---5----5--5--5----5-5-5-5--5---3--3-3-3--3--3--3-3-3--3- |
G ---0----0--0--0----0-0-0-0--0---0--0-0-0--0--0--0-0-0--0- |
D ---5----5--5--5----5-5-5-5--5---3--3-3-3--3--3--3-3-3--3- |
A ---5----5--5--5----5-5-5-5--5---3--3-3-3--3--3--3-3-3--3- |
D --------------------------------------------------------- |

D ---5----5--5--5----5-5-5-5--5---3--3-3-3--3--5-5-5--5---- |
A ---5----5--5--5----5-5-5-5--5---3--3-3-3--3--5-5-5--5---- |
G ---0----0--0--0----0-0-0-0--0---0--0-0-0--0--0-0-0--0---- |
D ---5----5--5--5----5-5-5-5--5---3--3-3-3--3--5-5-5--5---- |
A ---5----5--5--5----5-5-5-5--5---3--3-3-3--3--5-5-5--5---- |
D --------------------------------------------------------- |

  > Chorus

  > Refrain       =vocals=

  > Chorus        =vocals=


  > Refrain

  > Chorus

  > Half Refrain  =vocals=  :

D --------------------------------------------------------- |
A --------------------------------------------------------- |
G --------------------------------------------------------- |
D --------------------------------------------------------- |X2
A --------------------------------------------------------- |
D --------------------------------------------------------- |

D ---5----5--5--5----5-5-5-5--5---3--3-3-3--3--3--3-3-3--3-|
A ---5----5--5--5----5-5-5-5--5---3--3-3-3--3--3--3-3-3--3-|
G ---0----0--0--0----0-0-0-0--0---0--0-0-0--0--0--0-0-0--0-|
D ---5----5--5--5----5-5-5-5--5---3--3-3-3--3--3--3-3-3--3-|
A ---5----5--5--5----5-5-5-5--5---3--3-3-3--3--3--3-3-3--3-|
D ---------------------------------------------------------|

D ---5----5--5--5----5-5-5-5--5---3--3-3-3--3--5-5-5--5----|
A ---5----5--5--5----5-5-5-5--5---3--3-3-3--3--5-5-5--5----|
G ---0----0--0--0----0-0-0-0--0---0--0-0-0--0--0-0-0--0----|
D ---5----5--5--5----5-5-5-5--5---3--3-3-3--3--5-5-5--5----|
A ---5----5--5--5----5-5-5-5--5---3--3-3-3--3--5-5-5--5----|
D ---------------------------------------------------------|


  > Chorus     =Vocals=

  > Refrain

  > Chorus

  > Refrain    =vocals=

  > Chorus     =vocals=

  > intro      =Vocals=


> Ending Chord:

D -------|
A ---5---|
G ---0---|
D ---5---|
A ---5---|
D ---5---|



Intro

   Hot like the sun
   Wet like the rain
   Green like the leaves
   Life is a game
   Stars in my head
   Shine moon shine
   Everything's cool
   And I feel fine

Chorus

   Can you touch
   The root that feed us
   Can you hear
   The words that i say
   Can you feel
   The music move you
   Can you feel alive today

Intro Refrain

Refrain, Chorus

Refrain

   Vana dea dzjo vana dea
   La vana do aribedibeda
   Vana dea dzjo vana dea
   La vana do aribeda
   Vana dea dzjo vana dea
   La vana do aribedibeda
   Vana dea dzjo vana dea
   La vana do aribeda

Chorus

   Falledal do
   Falledal dea
   Falledal do
   Falledal da
   Falledaldea
   Ya vana dea ribeda

   Can you touch
   The root that feed us
   Can you hear
   The words that i say
   Can you feel
   The music move you
   Can you feel alive today

Refrain, Chorus

Half Refrain

   Vana dea dzjo vana dea
   La vana do aribedibeda
   Vana dea dzjo vana dea
   La vana do aribeda
   Vana dea dzjo vana dea
   La vana do aribedibeda
   Vana dea dzjo vana dea
   La vana do aribeda

Chorus

   Falledal do
   Falledal dea
   Falledal do
   Falledal da
   Falledaldea
   Ya vana dea ribeda

   Can you touch
   The root that feed us
   Can you hear
   The words that i say
   Can you feel
   The music move you
   Can you feel alive today

Refrain, Chorus

   Can you feel alive?
   Can you feel alive?
   feel alive?

Refrain

   Strong like the grass
   Tall like a tree
   Free like the wind
   Eternally
   Nothing to lose
   Nothing to gain
   Just running wyld
   Again and again and again

Chorus

   Can you touch
   The root that feed us
   Can you hear
   The words that i say
   Can you feel
   The music move you
   Can you feel alive today

   Falledal do
   Falledal dea
   Falledal do
   Falledal da
   Falledaldea
   Ya vana dea ribeda

Intro, Ending Chord

   Bumblebees and blossom
   Only trees and me
   Humble bees and blossom
   Only trees and me
Tap to rate this tab
 
# A B C D E F G H I J K L M N O P Q R S T U V W X Y Z