Song name
# A B C D E F G H I J K L M N O P Q R S T U V W X Y Z

On The Last Day - So Here Is Us On The Raggedy Edge tab

On THe Last Day - So here is us, On the raggedy Edge


INTRO you figure out the strum pattern

e--------|
B--------|
G--------|
D-0------|
A-0------|
D-0------|


Verse

e---------------------------|
B---------------------------|
G---------------------------|
D-0--8--7--8------0--8--10--|
A-0--8--7--8------0--8--10--|
D-0--8--7--8------0--8--10--|


Pre-Chorus

e-------|
B-------|
G-------|
D-0-----|
A-0-----|
D-0-----|


Chorus

e------------------|
B------------------|
G-14---12---10---9-|
D-X----X----X----X-|
A-12---10---8----7-|
D------------------|


Bridge

e----------------|
B----------------|
G----------------|
D-0--10--8--0--8-|
A-0--10--8--0--8-|
D-0--10--8--0--8-|

www.onthelastday.com... signed to Victoey Records
Tap to rate this tab
# A B C D E F G H I J K L M N O P Q R S T U V W X Y Z