Guitaretab - guitar tabs
Song name
# A B C D E F G H I J K L M N O P Q R S T U V W X Y Z

On The Last Day - Missing Frames tab

This tab isn't 100% correct, and Iím sorry!!

Palm mute-.
Hold-~
Hammer on-h
Pull off-p


Intro/verse (this isn't 100% correct)
-----------------------------------------------------------I
-----------------------------------------------------------I
--------777------------777---------------------------------I
--8~--7-----777-7h8--7-----777-7h8-------------------------I6x
--10~------------------------------------------------------I
-----------------------------------------------------------I

Pre chorus
----------------------------------------I
----------------------------------------I
----------------------------------------I1x
--555555555555555555555555555555-xxxx---I
--555555555555555555555555555555-xxxx---I
--555555555555555555555555555555-xxxx---I

Chorus
------------------------------------------------------------------------I
------------------------------------------------------------------------I
------------------------------------------------------------------------I
--8888888888888888--7777777777777777--55555555555555555555555555555555--I4x
--8888888888888888--7777777777777777--55555555555555555555555555555555--I
--8888888888888888--7777777777777777--55555555555555555555555555555555--I

Verse (again, not 100% correct)
-----------------------------------------------------------I
-----------------------------------------------------------I
--------777------------777---------------------------------I
--8~--7-----777-7h8--7-----777-7h8-------------------------I4x
--10~------------------------------------------------------I
-----------------------------------------------------------I
[ Tab from: http://www.guitaretab.com/o/on-the-last-day/99132.html ]
Pre chorus
-------------------------------------------------------------------------I
-------------------------------------------------------------------------I
-------------------------------------------------------------------------I
--888888888888888888888888888888--xxxx-----------------------------------I
--888888888888888888888888888888--xxxx-----------------------------------I
--888888888888888888888888888888--xxxx-----------------------------------I

Chorus
------------------------------------------------------------------------I
------------------------------------------------------------------------I
------------------------------------------------------------------------I
--8888888888888888--7777777777777777--55555555555555555555555555555555--I4x
--8888888888888888--7777777777777777--55555555555555555555555555555555--I
--8888888888888888--7777777777777777--55555555555555555555555555555555--I

Bridge
------------------------I
------------------------I
------------------------I1x
--11--33----------------I
--11--33----------------I
--11--33----------------I
  .   .
Bridge
----------------------------------------------------------------------I
----------------------------------------------------------------------I
----------------------------------------------------------------------I
--55555555----------------88888888--77777-----------------------------I5x
--55555555----------------88888888--77777-----------------------------I
--55555555----------------88888888--77777-----------------------------I
  .......                 .......   .....

End
------------------------I
------------------------I
------------------------I1x
--11--33----------------I
--11--33----------------I
--11--33----------------I
  .   .
Related for Missing Frames tab