Song name
# A B C D E F G H I J K L M N O P Q R S T U V W X Y Z

One Bad Son - Last Days tab

Band: One Bad Son
Song: Last Days
Tab by: D Huson
Capo 3rd Fret   All tab in relation to capo.
                                                                                X8
E-------------------------------------------------0h3-----I
A-0----3p0--0---3p0-------3---0---3p0--0-----3p0--------3-I
D---2--------2------2h3---------2--------2----------------I
G---------------------------------------------------------I
B---------------------------------------------------------I
E---------------------------------------------------------I
  Boy   I   am   an  old  man  better      listen    what   I    say  


E--------------------------------------------------------------------------I
A-------5---5---5---5---5---5--------3---3---3---3---3---3-----0---0---0---I
D-------7---7---7---7---7---7--------5---5---5---5---5---5-----2---2---2---I
G--------------------------------------------------------------2---2---2---I
B--------------------------------------------------------------------------I
E--------------------------------------------------------------------------I
So        Good         Bye       all       good     time       I    wanna      die

DIST.
E-------------------------------------------------------------------------I
A---0---------3p0-----0----3p0--------3----0---0--3p0----0--------0h3-----I
D---2---2-------------2--------2h3-------------2---------2-----3p0------3-I
G---2-----------------2--------------------------2---2--------------------I
B-------------------------------------------------------------------------I
E-------------------------------------------------------------------------I
These are the basic verseís throughout the song, listen and Itís easy to put together.
Tap to rate this tab
 
# A B C D E F G H I J K L M N O P Q R S T U V W X Y Z