Song name
# A B C D E F G H I J K L M N O P Q R S T U V W X Y Z

One Buck Short - Khayalan Masa tab

-------------------------------------------------------------------------------
	           	    KHAYALAN MASA - One Buck Short
-------------------------------------------------------------------------------
Tabbed by: Zahirah Ardy
Email: broississy@yahoo.com
Official site of the band: http://www.onebuckshort.com

Tuning: Standard

d - death mute



Intro:

Guitar 1 CLEAN
e|----0~---0---0~---0---0~---0---0~---0---|
B|---5----5---5----5---5----5---5----5----|
G|--2----2---2----2---2----2---2----2-----|
D|----------------------------0-----------|
A|-0--------0--------4--------------------|
E|----------------------------------------|


Guitar 2 N/A


Guitar 1 CLEAN
e|----0~---0---0~---0---0~---0---0~---0~---|
B|---5----5---5----5---5----5---5----5----|
G|--2----2---2----2---2----2---2----2-----|
D|----------------------------0-----------|
A|-0--------0--------4--------------------|
E|----------------------------------------|


Guitar 2 DISTORTED
e|-----------------------------------------------------|
B|-----------------------------------------------------|
G|-----------------------------------------------------|
D|-7~---11~--12~--12d----------------------------------|
A|-7~---11~--12~--12d----------------------------------|
E|-5~---9~---10~--10d----------------------------------|



Verse 1:

Guitar 1 N/A

Guitar 2 (played in palm mute) DISTORTED
e|-----------------------------------|
B|-----------------------------------|
G|--------------------------7--------|
D|--7------------4----------7--( X8)-|
A|--7--( X16 )---4--( X8)---5--------|
E|--5------------2-------------------|


Guitar 1 CLEAN
Stroke once : A

Guitar 2 (played in palm mute) DISTORTED
e|-----------------------------------|
B|-----------------------------------|
G|--------------------------7--------|
D|--7------------4----------7--( X8)-|
A|--7--( X16 )---4--( X8)---5--------|
E|--5------------2-------------------|



Pre-Chorus

Guitar 1 CLEAN
Pluck everytime Guitar 2 strokes
e|---0---|
B|----2--|
G|--2----|
D|-------|
A|-------|
E|-------|

Guitar 2 DISTORTED
e|-----------------------------|
B|-----------------------------|
G|--------------7~-------------|
D|--4~----2~----7~----7~---7~--|
A|--4~----2~----5~----7~---7~--|
E|--2~----0~----X-----5~---4~--|

Guitar 1 CLEAN
Pluck everytime Guitar 2 strokes
e|---0---|
B|----2--|
G|--2----|
D|-------|
A|-------|
E|-------|

Guitar 2 DISTORTED
e|-----------|
B|-----------|
G|-----------|
D|--4~----2~-|
A|--4~----2~-|
E|--2~----0~-|



Chorus (Play 2 round)

Guitar 1
Pluck everytime Guitar 2 strokes
e|----5---|
B|--5-----|
G|-2-2----|
D|--------|
A|--------|
E|--------|

Guitar 2 DISTORTED
e|----------------------------------------|
B|----------------------------------------|
G|---------------7------------------------|
D|--7------------7--( X14 )---9-----------|
A|--7--( X16 )---5------------9--( X2 )---|
E|--5-------------------------7-----------|



Repeat Verse 1, Pre-Chorus



Chorus

Guitar 1
Pluck everytime Guitar 2 strokes
e|----5---|
B|--5-----|
G|-2-2----|
D|--------|
A|--------|
E|--------|

Guitar 2 DISTORTED
e|------------------------------------------|
B|------------------------------------------|
G|---------------7--------------------------|
D|--7------------7--( X14 )---9----------7d-|
A|--7--( X16 )---5------------9--( X2 )--7d-|
E|--5-------------------------7----------5d-|


Bridge

Guitar 1 N/A


Guitar 2 DISTORTED
e|------------------|
B|------------------|
G|--9~---7~---------|
D|--9~---7~---4d----|
A|--7~---5~---4d----|
E|------------2d----|


Guitar 1 N/A


Guitar 2 DISTORTED
e|------------------|
B|------------------|
G|--9~---7~---------|
D|--9~---7~---7d----|
A|--7~---5~---7d----|
E|------------5d----|


Guitar 1 N/A


Guitar 2 DISTORTED
e|-----------------------------------------------------------|
B|-----------------------------------------------------------|
G|--9~---7~---4-----------9----------------------------------|
D|--9~---7~---4-----------9--( X8 with last one let ring )---|
A|--7~---5~---2--( X8 )---7----------------------------------|
E|-----------------------------------------------------------|


Guitar 1 CLEAN
e|----0~---0---0~---0---0~---0---0~---0---|
B|---5----5---5----5---5----5---5----5----|
G|--2----2---2----2---2----2---2----2-----|
D|----------------------------0-----------|
A|-0--------0--------4--------------------|
E|----------------------------------------|


Guitar 2 DISTORTED ( palm mute )
e|------------------------------------------|
B|-------------------6----------7-----------|
G|-------------------6--( X8 )--7--( X8 )---|
D|-------------------4----------5-----------|
A|------------------------------------------|
E|------------------------------------------|



Chorus

Guitar 1
Pluck everytime Guitar 2 strokes
e|----5---|
B|--5-----|
G|-2-2----|
D|--------|
A|--------|
E|--------|

Guitar 2 DISTORTED
e|----------------------------------------|
B|----------------------------------------|
G|---------------7------------------------|
D|--7------------7--( X14 )---9-----------|
A|--7--( X16 )---5------------9--( X2 )---|
E|--5-------------------------7-----------|

e|-----------------------------------------------------|
B|-----------------------------------------------------|
G|-----------------------------------------------------|
D|-----------------------------------------------------|
A|-----------------------------------------------------|
E|-----------------------------------------------------|


Lyric


Ku rasa bagaikan malam ini terang
Sungguh indah seindah sinarnya
Terdengar dalam khayalan masa itu
Mungkin itu mimpi-mimpi dunia

Dalam senyapku
Ku tercarinya
Ku tersenyum dalam bayangmu

Menanti-nanti selama ini menunjukkan cinta
Biar rasa ini bertahan untuk selama kita

Kusimpan katamu terpahat dalam hati
Biarkan masa meniti jalanku
Diriku disini tetap disini
Hingga akhirnya kita jumpa lagi

Dalam senyapku
Ku tercarinya

Menanti-nanti selama ini menunjukkan cinta
Biar rasa ini bertahan untuk selama kita

Telah kau semarakkan hidupku
Sayangi pasanganku
Ini kan berapa jauh kau padaku
Aku sanggup tunggu masanya

Ku rasa bagaikan malam ini terang
Sungguh indah seindah sinarnya

Menanti-nanti selama ini menunjukkan cinta
Biar rasa ini bertahan untuk selama kita

Jangan bisaku melayang-layang
Marilah kita bersama-sama

Jangan bisaku melayang-layang
Marilah kita bersama-sama
Tap to rate this tab
# A B C D E F G H I J K L M N O P Q R S T U V W X Y Z