Song name
# A B C D E F G H I J K L M N O P Q R S T U V W X Y Z

One Bullet Left - One Bullet Left tab

 This is an band from the Netherlands One Bullet Left  

  * =palm mute
  + =fast picking
  
  intro
 e-|--------------------------------------|
 B-|--------------------------------------|
 G-|--------------------------------------| X8
 D-|--------------------------------------|
 A-|------6-5-------6-5------6-5-8-6-5-3--|
 E-|0-0---------0-0-------0-0-------------|
    * *         * *       * *
 e-|--------------------------------------------------------------|
 B-|--------------------------------------------------------------|
 G-|--------------------------------------------------------------| X2
 D-|------9--------3--------9--------3--------9--------3----------|
 A-|------9--------3--------9--------3--------9--------3----------|
 E-|0-0---9--0-0---3--0-0---9--0-0---3--0-0---9--0-0---3--8-6-5-3-|
    * *      * *      * *      * *      * *      * *
 e-|------------------------------------------|
 B-|------------------------------------------|
 G-|------------------------------------------| X6
 D-|------------------------------------------|
 A-|-----6-5--------6-5----------6-5-8-6-5-3--|
 E-|0-0--------0-0---------0-0----------------|
    * *        * *         * *
 e-|--------------------|
 B-|--------------------|
 G-|--------------------| X4
 D-|--------------------|
 A-|-----4444-3333-2222-|
 E-|0-0-----------------|
    * *  ++++ ++++ ++++
 e-|------------------------------------------|
 B-|------------------------------------------|
 G-|------------------------------------------| X4
 D-|------------------------------------------|
 A-|-----6-5--------6-5----------6-5-8-6-5-3--|
 E-|0-0--------0-0---------0-0----------------|
    * *        * *         * * 
 e-|--------------------------------------------------------------|
 B-|--------------------------------------------------------------|
 G-|--------------------------------------------------------------| X2
 D-|------9--------3--------9--------3--------9--------3----------|
 A-|------9--------3--------9--------3--------9--------3----------|
 E-|0-0---9--0-0---3--0-0---9--0-0---3--0-0---9--0-0---3--8-6-5-3-|
    * *      * *      * *      * *      * *      * *
 e-|-------------------------------------------|
 B-|-------------------------------------------|
 G-|-------------------------------------------| X8
 D-|---------0----------0----------------------|
 A-|5-6-3-5--0-5-6-3-5--0-5-6-3-5-----8-7-8-10-|
 E-|-------0-0--------0-0---------0-0-8-7-8-10-|
           *          *           * *
 e-|------------------------------------------|
 B-|------------------------------------------|
 G-|------------------------------------------| X4
 D-|------------------------------------------|
 A-|-----6-5--------6-5----------6-5-8-6-5-3--|
 E-|0-0--------0-0---------0-0----------------|
    * *        * *         * *
 e-|--------------------|
 B-|--------------------|
 G-|--------------------| X4
 D-|--------------------|
 A-|-----4444-3333-2222-|
 E-|0-0-----------------|
    * *  ++++ ++++ ++++
 e-|------------------------------------------|
 B-|------------------------------------------|
 G-|------------------------------------------| X2
 D-|------------------------------------------|
 A-|-----6-5--------6-5----------6-5-8-6-5-3--|
 E-|0-0--------0-0---------0-0----------------|
    * *        * *         * *
  
 This was my first tab I hope you like it. 
 You can download and listen this song on http://www.onebulletleft.nl/ 
 I hope you enjoy 
Tap to rate this tab
# A B C D E F G H I J K L M N O P Q R S T U V W X Y Z