Song name
# A B C D E F G H I J K L M N O P Q R S T U V W X Y Z

One Day As A Lion - Wild International tab

-----------------------------------------------------------------------
		  Wild International - One Day As A Lion
-----------------------------------------------------------------------
Tabbed by: SchitzoJuggalo1
Tuning: Drop D


Verse 1

E|--------------------------||
B|--------------------------||
G|--------------------------||
D|----3--1--4--3----3----3--||  x9
A|--3-3--1--4--3--3-3--3-3--||
D|----3--1--4--3----3----3--||


Chorus 1

E|-------------------------|      E|---------------------||
B|-------------------------|      B|---------------------||
G|-------------------------|      G|---------------------||
D|--3-4-4-4-4--2-3--1-3-3--|  x3  D|--3-4-4-4-4--2-3--3--||  x1
A|--3-4-4-4-4--0-1--1-3-3--|      A|--3-4-4-4-4--0-1--3--||
D|--3-4-4-4-4-------1-3-3--|      D|--3-4-4-4-4-------3--||


Verse 2

E|---------------------------------------------|
B|---------------------------------------------|
G|---------------------------------------------|
D|----3--1----3----3----3----3----3----3----3--|  x1
A|--3-3--1--3-3--3-3--3-3--3-3--3-3--3-3--3-3--|
D|----3--1----3----3----3----3----3----3----3--|


e|--------------------------||
b|--------------------------||
g|--------------------------||
d|----3--1--4--3----3----3--||  x6
a|--3-3--1--4--3--3-3--3-3--||
d|----3--1--4--3----3----3--||


Chorus 2

E|-------------------------|      E|-----------------------------|
B|-------------------------|      B|-----------------------------|
G|-------------------------|      G|-----------------------------|
D|--3-4-4-4-4--2-3--1-3-3--|  x5  D|--3-4-4-4-4--2-3--1-3-3-3-3--| x1
A|--3-4-4-4-4--0-1--1-3-3--|      A|--3-4-4-4-4--0-1--1-3-3-3-3--|
D|--3-4-4-4-4-------1-3-3--|      D|--3-4-4-4-4-------1-3-3-3-3--|


Breakdown

E|------------------------------|      E|--------------------------------|
B|------------------------------|      B|--------------------------------|
G|------------------------------|      G|--------------------------------|
D|------------------------------|  x4  D|--------------------------------|  x4
A|------------------------------|      A|--------------------------------|
D|--8-8-8-8-6h8--6h8-8-9-8-6h8--|      D|--6h8-8-9-8-6h8--6h8-8-9-8-6h8--|


Outro

E|-------------------------|
B|-------------------------|
G|-------------------------|
d|--3-4-4-4-4--2-3--1-3-3--|  x4
a|--3-4-4-4-4--0-1--1-3-3--|
d|--3-4-4-4-4-------1-3-3--|
Tap to rate this tab
 
# A B C D E F G H I J K L M N O P Q R S T U V W X Y Z