Guitaretab - guitar tabs
Song name
# A B C D E F G H I J K L M N O P Q R S T U V W X Y Z

One Day As A Lion - One Day As A Lion tab

Album: One Day As A Lion
Band: One Day As A Lion
Tabbed by: J.Dawg
Tunings: Drop D, Standard.


Songs:

1. Wild International 
2. Ocean View 
3. Last Letter
4. If You Fear Dying
5. One Day As A Lion (Tabbed By TollBoothWorker)


Give credit to TollBoothWorker for tabbing 
the main song of the album, One Day As A Lion.


|-------------------|
|    Guitar Key:    |
|                   |
| (#)= Ghost note   |
|  h= Hammer on     |
|  p= Pull off      |
|  += Hold note     |
|  ~= Feedback      |
|  sb= Slow bend    |
|  ^= Whammy in     |
|  v= Whammy out    |
|  x= Mute          |
|-------------------|





_____________________________________
        Wild International
_____________________________________

Tuning: Standard





 Intro:   X9    0:53         Riff:   X3   0:20     X1  0:03 
e|-----------------------||----------------------||----------|
b|-----------------------||----------------------||----------|
g|-----------------------||----------------------||----------|
d|-----------------------||----------2h3---------||-2h3------|
a|-3-3-1-4--3--3-3--3-3--||-3h4-4-4------1h3-3-3-||-----3----|
e|-----------------------||----------------------||----------|




    Verse: X1         0:11                      X6      0:32
e|---------------------------------------||-----------------------|
b|---------------------------------------||-----------------------|
g|---------------------------------------||-----------------------|
d|---------------------------------------||-----------------------|
a|-3--3-3--3-3--3-3--3-3--3-3--3-3--3-3--||-3-3-1-4--3--3-3--3-3--|
e|---------------------------------------||-----------------------|





  Riff 2:    X7   0:34       X1         Breakdown:   X5       0:20
e|----------------------|-----------||-----------------------------|
b|----------------------|-----------||-----------------------------|
g|----------------------|-----------||-----------------------------|
d|----------2h3---------|-----------||-----------------------------|
a|-3h4-4-4------1h3-3-3-|-3-3-3-3-3-||-----------------------------|
e|----------------------|-----------||-6-6-6-6-6-4h6-4h6-6-7-6-4h6-|




     X8      0:22      Outro:  X5 0:20
e|-----------------||----------------------|
b|-----------------||----------------------|
g|-----------------||----------------------|
d|-----------------||----------2h3---------|
a|-----------------||-3h4-4-4------1-3-3-3-|
e|-4h6-6-7-6-4h6---||----------------------|



-----------------------------------------------------

Intro: 53 seconds
Riff 1: 23 seconds
Verse: 43 seconds
Riff 2: 34 seconds
Breakdown: 42 seconds
Outro: 20 seconds
-----------------------------------------------------



_________________________________
          Ocean View
_________________________________


Tuning: Standard


For this song use a DigiTech whammy and set it
down 1 octave. Sorry that there is no intro,
it`s really hard to sound out. 


Verse 1:   X8      0:45
e|--------------------------------------|
b|--------------------------------------|
g|--------------------------------------|
d|--------------------------------------|
a|-3---3-^-3-^-3-^-v-3----4-3h4-3h4p3---|
e|--------------------------------------|


Build Up 1:   X1    0:12
e|--------------------------------------------------------------------------------------------|
b|--------------------------------------------------------------------------------------------|
g|--------------------------------------------------------------------------------------------|
d|--------------------------------------------------------------------------------------------|
a|-1-1-1-1-1-1-1-1-1-1-1-1-1-1-1-1-1-1-1-1-1-1-1-1-1-1-1-1-1-1-1-1-1-1-1-1-1-1-1-1-1-1-1-1-1--|
e|--------------------------------------------------------------------------------------------|



Riff 1:  X8    0:20        Verse 2:   X1      0:06
e|-----------------------||------------------------------------|
b|-----------------------||------------------------------------|
g|-----------------------||------------------------------------|
d|-----------------------||------------------------------------|
a|-3-3-3--3-3-3--3-3-3-x-||-3---3-^-3-^-3-^-v-3--4-3h4-3h4p3---|
e|-----------------------||------------------------------------|



           X8           0:40
e|--------------------------------------|
b|--------------------------------------|
g|--------------------------------------|
d|--------------------------------------|
a|-3---3-^-3-^-3-^-v-3----4-3h4-3h4p3---|
e|--------------------------------------|



Build Up 2:   X1        0:12
e|--------------------------------------------------------------------------------------------|
b|--------------------------------------------------------------------------------------------|
g|--------------------------------------------------------------------------------------------|
d|--------------------------------------------------------------------------------------------|
a|-1-1-1-1-1-1-1-1-1-1-1-1-1-1-1-1-1-1-1-1-1-1-1-1-1-1-1-1-1-1-1-1-1-1-1-1-1-1-1-1-1-1-1-1-1--|
e|--------------------------------------------------------------------------------------------|



                                    Outro:  X1   0:55
Riff 2:  X15       0:45     Play this note for the outro about X200
e|-----------------------||-----------------------------------------|
b|-----------------------||-----------------------------------------|
g|-----------------------||-----------------------------------------|
d|-----------------------||-----------------------------------------|
a|-3-3-3--3-3-3--3-3-3-x-||-3-3-3-3-3-3-3-3-3-3-3-3-3-3-3-3-3-3-3-3-|
e|-----------------------||-----------------------------------------|



----------------------------------
  Full time of song  4:07
----------------------------------
Verse 1: 45 seconds
Build Up 1: 12 seconds
Riff 1: 20 seconds
Verse 2: 46 seconds
Build Up 2: 12 seconds
Riff 2: 45 seconds
Outro: 55 seconds
----------------------------------



____________________________________
           Last Letter
____________________________________


Tuning: Standard 




Intro:   X12   0:35        Riff Build Up:  X1 0:06
e|----------------------||-----------------------------------|
b|----------------------||-----------------------------------|
g|----------------------||-----------------------------------|
d|----------------------||-----------------------------------|
a|----------------------||-----------------------------------|
e|-6-6-6+++(5)6-6-6-5-4-||-6-6-6+++6-6-6+++6-6-6+++6-6-6-5-4-|



Riff 1: X8  0:24           X1     0:03
e|---------------------||------------------|
b|---------------------||------------------|
g|---------------------||------------------|
d|---------------------||------------------|
a|---------------------||------------------|
e|-6-6-6+++(5)6-6-11-9-||-6-6-6+++6-6-6+++-|



Verse 1:  X12  0:35        Riff Build Up 2:    X1  0:06
e|----------------------||-----------------------------------|
b|----------------------||-----------------------------------|
g|----------------------||-----------------------------------|
d|----------------------||-----------------------------------|
a|----------------------||-----------------------------------|
e|-6-6-6+++(5)6-6-6-5-4-||-6-6-6+++6-6-6+++6-6-6+++6-6-6-5-4-|



Riff 2:   X8  0:24         X1    0:06
e|---------------------||----------------------------------|
b|---------------------||----------------------------------|
g|---------------------||----------------------------------|
d|---------------------||----------------------------------|
a|---------------------||----------------------------------|
e|-6-6-6+++(5)6-6-11-9-||-6-6-6+++6-6-6+++6-6-6+++6-6-6+++-|



Riff 2 Outro: X5   0:30               Build Up: X1  0:06
e|----------------------------------||---------------------|
b|----------------------------------||---------------------|
g|----------------------------------||---------------------|
d|----------------------------------||---------------------|
a|----------------------------------||---------------------|
e|-8-8-8+++8-8-8+++8-8-8+++8-8-11-9-||-6-6-6++++++++sb~~~~~|



Outro:    X8    0:55                                    End on this
e|----------------------------------------------------||--------|
b|-10-10-14-14-10-10-14-14-10-10-16-16-10-10-16h17-16-||-14-----|
g|----------------------------------------------------||--------|
d|----------------------------------------------------||--------|
a|----------------------------------------------------||--------|
e|----------------------------------------------------||--------|


------------------------------------
Full time of song 3:59
------------------------------------
Guitar key:
h= Hammer on
+= Hold note
~= Feedback 
sb= Slow bend
()= Ghost note
------------------------------------







____________________________________________
         If You Fear Dying
____________________________________________

For this song, use a DigiTech Whammy and set
it down 1 octave, with the whammy pedal in.( toe in.)
                                                          


Intro:   X8       0:45
e|----------------------------|
b|----------------------------|
g|----------------------------|
d|-(3)-----4--2h3--(3)-----4--|
a|----------------------------|
d|----3--3------------3--3----|




Riff 1:   X8      0:24           Verse:   X1     0:04       
e|-----------------------------||-------------------------|
b|-----------------------------||-------------------------|
g|-----------------------------||-------------------------|
d|-----------------------------||------4--2h3--(3)-----4--|
a|-----------------------------||-------------------------|
d|-3--3--3--3--3--3-3--3-3---3-||-3--3------------3--3----|




                                  Verse Outro:
             X3        0:18        X4   0:24
e|----------------------------||----------------|
b|----------------------------||----------------|
g|----------------------------||----------------|
d|-(3)-----4--2h3--(3)-----4--||-(3)------------|
a|----------------------------||----------------|
d|----3--3------------3--3----||----3--3--------|




Riff 2:   X16          0:46
e|-----------------------------|
b|-----------------------------|
g|-----------------------------|
d|-----------------------------|
a|-----------------------------|
d|-3--3--3--3--3--3-3--3-3---3-|




                                                     End on this
Outro:   X6                        1:10               X1   0:07       
e|-------------------------------------------------||------------|
b|-------------------------------------------------||------------|
g|-------------------------------------------------||------------|
d|-------------------------------------------------||------------|
a|-----------------------10h11-10-11--10--11----11-||------------|
d|-3--3----3-4-3----3-3----------------------------||-3--3-------|


-----------------------------
 Full time of song  3:58
-----------------------------
Intro: 45 seconds
Riff 1: 24 seconds
Verse: 22 seconds
Verse Outro: 24 seconds
Riff 2: 46 seconds           
Outro: 1 minute & 17 seconds 
-------------------------------



________________________________________
          One Day As A Lion
________________________________________

Tabbed by: TollBoothWorker
Email:

Tuning: Drop D

Intro/Verse

Gtr 1  (0:09 - 0:55)
[ Tab from: http://www.guitaretab.com/o/one-day-as-a-lion/112792.html ]
Riff1
e|--13-13--13-13--13-13--13-13--|--13-13--13-13--13-13--13-13-14-14--|
B|------------------------------|------------------------------------|
G|------------------------------|------------------------------------|
D|------------------------------|------------------------------------| 4x
A|------------------------------|------------------------------------|
D|------------------------------|------------------------------------|

Riff2
e|--11-11--11-11--11-11--11-11--|--11-11--11-11--11-11--11-11-12-12--|
B|------------------------------|------------------------------------|
G|------------------------------|------------------------------------|
D|------------------------------|------------------------------------| 6x
A|------------------------------|------------------------------------|
D|------------------------------|------------------------------------|


Gtr 2  (0:00 - 0:27)

e|------------------------------|------------------------------------|
B|------------------------------|------------------------------------|
G|------------------------------|------------------------------------|
D|------------------------------|------------------------------------|
A|------------------------------|------------------------------------|
D|------------------------------|------------------------------------|


Gtr 2  (0:28 - 1:02)

 This comes right at the beginning of each Gtr 1 riff, and the change up is there too. I
use Distortion, and a Whammy set to harmonize 2 octaves down.

Riff1a/b
e|-------------------|         e|---------------|
B|-------------------|         B|---------------|
G|------8------------|         G|---------8-----|
D|------8------------|   and   D|---------8-----|
A|------6------------|         A|-----(4)-6-----|
D|-------------------|         D|---------------|

This is that weird synth sweep. The best way I can think of to emulate this is sliding
Eb5 with a little delay and Wah Wah. The wah should not have a high tone, but needs a
sweep sound. Dunlop is the best bet. No Whammy either, but a phaser could do the trick. 
donít have a phaser so I couldnít tell you.

Riff2
e|-----------|
B|----11/----|
G|----8 /----|
D|-----------|
A|-----------|
D|-----------|


Gtr 1 (0:56 - 1:04)

Riff1
e|--13-13--13-13--13-13--13-13--|--13-13--13-13--13-13--13-13-14-14--|
B|------------------------------|------------------------------------|
G|------------------------------|------------------------------------|
D|------------------------------|------------------------------------| 2x
A|------------------------------|------------------------------------|
D|------------------------------|------------------------------------|


Chorus

Gtr 1 (1:09 - 1:46)

Riff3
e|--13-13--13-13--13-13--13-13-14-14-|--13-13--13-13--13-13--13-13-12-12--|
B|-----------------------------------|------------------------------------|
G|-----------------------------------|------------------------------------|
D|-----------------------------------|------------------------------------|1x
A|-----------------------------------|------------------------------------|
D|-----------------------------------|------------------------------------|

Riff4
e|--13-13--13-13--13-13--13-13-14-14-|--13-13--13-13--13-13--13-13-14-14--|
B|-----------------------------------|------------------------------------|
G|-----------------------------------|------------------------------------|
D|-----------------------------------|------------------------------------|1x
A|-----------------------------------|------------------------------------|
D|-----------------------------------|------------------------------------|

Riff3
e|--13-13--13-13--13-13--13-13-14-14-|--13-13--13-13--13-13--13-13-12-12--|
B|-----------------------------------|------------------------------------|
G|-----------------------------------|------------------------------------|
D|-----------------------------------|------------------------------------|5x
A|-----------------------------------|------------------------------------|
D|-----------------------------------|------------------------------------|

Gtr 2  (1:04)

This is for that weird transition that holds out. Maybe try adding overdrive on top of
distortion, or Swell into the chord after you pick it with the volume knob or pedal.
Style!

Riff3
e|---------------|
B|---------------|
G|-----8---------|
D|-----8---------| 1x
A|-----6---------|
D|-----------15\-|

Gtr 2 (1:09- 1:46)

[x] - is totally optional. No need for a whammy. Just Distortion. Its very hard to hear
these note, but they are all there. During this riff It seems like gtr 3 is doing the
for gtr 2 also, but tabbing that is a little overboard.

Riff4
e|--------------------------|------------------------|
B|--------------------------|------------------------|
G|--------------------------|------------------------|
D|--------------------------|------------------------|
A|--------------------------|------------------------|
D|--3-5-5-6--3-3-5-6-8-6-5--|--3-5-5-6--3-3-5-5-6-1--|

e|---------------------------|------------------------|
B|---------------------------|------------------------|
G|---------------------------|------------------------|
D|---------------------------|------------------------|
A|---------------------------|------------------------|
D|--3-5-5-6--3-3-5-8-6-5-[3]-|--3-5-5-6--3-3-5-5-6-8--|

e|--------------------------|------------------------|
B|--------------------------|------------------------|
G|--------------------------|------------------------|
D|--------------------------|------------------------|
A|--------------------------|------------------------|
D|--3-5-5-6--3-3-5-6-8-6-5--|--3-5-5-6--3-3-5-5-6-1--|

e|---------------------------|------------------------|
B|---------------------------|------------------------|
G|---------------------------|------------------------|
D|---------------------------|------------------------|
A|---------------------------|------------------------|
D|--3-5-5-6--3-3-5-8-6-5-[3]-|--3-5-5-6--3-3-5-5-6-8--|

This is that weird sweep right at the end of riff4

Riff2
e|-----------|
B|----11/----|
G|----8 /----|
D|-----------|
A|-----------|
D|-----------|

Verse

*Gtr 1*  (1:50 - 3:00)

Riff1
e|--13-13--13-13--13-13--13-13--|--13-13--13-13--13-13--13-13-14-14--|
B|------------------------------|------------------------------------|
G|------------------------------|------------------------------------|
D|------------------------------|------------------------------------| 2x
A|------------------------------|------------------------------------|
D|------------------------------|------------------------------------|

Riff2
e|--11-11--11-11--11-11--11-11--|--11-11--11-11--11-11--11-11-12-12--|
B|------------------------------|------------------------------------|
G|------------------------------|------------------------------------|
D|------------------------------|------------------------------------| 4x
A|------------------------------|------------------------------------|
D|------------------------------|------------------------------------|


Chorus

Riff3
e|--13-13--13-13--13-13--13-13-14-14-|--13-13--13-13--13-13--13-13-12-12--|
B|-----------------------------------|------------------------------------|
G|-----------------------------------|------------------------------------|
D|-----------------------------------|------------------------------------|1x
A|-----------------------------------|------------------------------------|
D|-----------------------------------|------------------------------------|

Riff4
e|--13-13--13-13--13-13--13-13-14-14-|--13-13--13-13--13-13--13-13-14-14--|
B|-----------------------------------|------------------------------------|
G|-----------------------------------|------------------------------------|
D|-----------------------------------|------------------------------------|1x
A|-----------------------------------|------------------------------------|
D|-----------------------------------|------------------------------------|

Riff3
e|--13-13--13-13--13-13--13-13-14-14-|--13-13--13-13--13-13--13-13-12-12--|
B|-----------------------------------|------------------------------------|
G|-----------------------------------|------------------------------------|
D|-----------------------------------|------------------------------------|6x
A|-----------------------------------|------------------------------------|
D|-----------------------------------|------------------------------------|

*Gtr2*  (2:00 - 3:05)

This comes right at the beginning of each Gtr 1 riff, and the change up is there too. I
use Distortion, and a Whammy set to harmonize 2 octaves down.

Riff1a/b
e|-------------------|         e|---------------|
B|-------------------|         B|---------------|
G|------8------------|         G|---------8-----|
D|------8------------|   and   D|---------8-----|
A|------6------------|         A|-----(4)-6-----|
D|-------------------|         D|---------------|

[x] - is totally optional. No need for a whammy. Just Distortion. Its very hard to hear
these note, but they are all there. During this riff It seems like gtr 3 is doing the
for gtr 2 also, but tabbing that is a little overboard.

Riff4
e|--------------------------|------------------------|
B|--------------------------|------------------------|
G|--------------------------|------------------------|
D|--------------------------|------------------------|
A|--------------------------|------------------------|
D|--3-5-5-6--3-3-5-6-8-6-5--|--3-5-5-6--3-3-5-5-6-1--|

e|---------------------------|------------------------|
B|---------------------------|------------------------|
G|---------------------------|------------------------|
D|---------------------------|------------------------|
A|---------------------------|------------------------|
D|--3-5-5-6--3-3-5-8-6-5-[3]-|--3-5-5-6--3-3-5-5-6-8--|

e|--------------------------|------------------------|
B|--------------------------|------------------------|
G|--------------------------|------------------------|
D|--------------------------|------------------------|
A|--------------------------|------------------------|
D|--3-5-5-6--3-3-5-6-8-6-5--|--3-5-5-6--3-3-5-5-6-1--|

e|---------------------------|------------------------|
B|---------------------------|------------------------|
G|---------------------------|------------------------|
D|---------------------------|------------------------|
A|---------------------------|------------------------|
D|--3-5-5-6--3-3-5-8-6-5-[3]-|--3-5-5-6--3-3-5-5-6-8--|

This is that weird sweep right at the end and beginning of riff4

Riff2

e|-----------|
B|----11/----|
G|----8 /----|
D|-----------|
A|-----------|
D|-----------|

This is that dissonant chord thatís held. It sounds really really cool cuz the notes
each other out and then it makes a pulsating sound or thatís just because I am transcribing
on an acoustic.

Riff2
e|-----------|
B|-----------|
G|-----------|
D|----0------|
A|----4------|
D|-----------|

Outro

Gtr 1  (3:05 - end)

Volume swell into that first +11.

e|--+11-----11-13-14-13--13-16-14--13-14-13-11-----|
B|-------11------------------------------------11--|
G|-------------------------------------------------|
D|-------------------------------------------------|
A|-------------------------------------------------|
D|-------------------------------------------------|

End on this

e|-----13----|
B|-----------|
G|-----------|
D|-----------|
A|-----------|
D|-----------|

Gtr2 (3:05 - End)

Distortion and Whammy set 2 Oct down.

e|-------------------|----------------|-------------------|-------------|
B|-------------------|----------------|-------------------|-------------|
G|-----8-8-8--8-8----|----------------|-----8-8-8--8-8----|--6-6-6-6-6--|
D|-----8-8-8--8-8----|----------------|-----8-8-8--8-8----|--6-6-6-6-6--|
A|-----6-6-6--6-6----|----------------|-----6-6-6--6-6----|--4-4-4-4-4--|
D|-------------------|----------------|-------------------|-------------|

__________________________________________________________________________

That is all the songs! Enjoy! :)
Related for One Day As A Lion tab