Song name
# A B C D E F G H I J K L M N O P Q R S T U V W X Y Z

One Dead Three Wounded - Cowboys Dont Look Back tab

Artist: One Dead Three Wounded
Song: Cowboys Don't Look Back
Album: Paint The Town
Tabbed By: Austin
Tuning: Drop C

Key: ~ Ring
     " Pinch Harmonic
     QB Quarter Bend
      . Palm Mute
       Pick Slide UP

This tablature is for the rhythm and some lead guitar only. I have yet to post the rest 
the lead guitar parts.


Intro

D----------|
A----------|
F----------|
C-2~-------|
G-2~-------|
C-2~-------|
(7 beats)

Verse (Guitar 1 and 2)

D-------------------------------------------------------------------------------------------------|
A-------------------------------------------------------------------------------------------------|
F-------------------------------------------------------------------------------------------------|
C-2--2--3--3--0--0--0--0--2--2--3--3--0--0--0--0--2--2--5--5--6--6--6--6--2--2--5--5--6--6--6--6--|
G-2--2--3--3--0--0--0--0--2--2--3--3--0--0--0--0--2--2--5--5--6--6--6--6--2--2--5--5--6--6--6--6--|
C-2--2--3--3--0--0--0--0--2--2--3--3--0--0--0--0--2--2--5--5--6--6--6--6--2--2--5--5--6--6--6--6--|

D-----------------------------------------|
A-----------------------------------------|
F-----------------------------------------|
C-2--2-2-2-\\\\\\\\\\-2--2-2-2------------|
G-2--2-2-2-\\\\\\\\\\-2--2-2-2------------|
C-2--2-2-2-\\\\\\\\\\-2--2-2-2------------|

Guitar 1 plays for like  second, then Guitar 2 comes in and plays this behind Guitar 1...

D-------------------------------------------------------------------------------------------------|
A-------------------------------------------------------------------------------------------------|
F-------------------------------------------------------------------------------------------------|
C-2--2--3--3--0--0--0--0--2--2--3--3--0--0--0--0--2--2--5--5--6--6--6--6--2--2--5--5--6--6--6--6--|
G-2--2--3--3--0--0--0--0--2--2--3--3--0--0--0--0--2--2--5--5--6--6--6--6--2--2--5--5--6--6--6--6--|
C-2--2--3--3--0--0--0--0--2--2--3--3--0--0--0--0--2--2--5--5--6--6--6--6--2--2--5--5--6--6--6--6--|

Then...this again

D-----------------------------------------|
A-----------------------------------------|
F-----------------------------------------|
C-2--2-2-2-\\\\\\\\\\-2--2-2-2------------|
G-2--2-2-2-\\\\\\\\\\-2--2-2-2------------|
C-2--2-2-2-\\\\\\\\\\-2--2-2-2------------|

And then the long Pinch Harmonic

D---------------------------------------------------------------------------------------------|
A---------------------------------------------------------------------------------------------|
F---------------------------------------------------------------------------------------------|
C---------------------------------------------------------------------------------------------|
G---------------------------------------------------------------------------------------------|
C-"2qbr-qbr-qbr-qbr-qbr-qbr-qbr-qbr-qbr-qbr-qbr-qbr-qbr-qbr-qbr-qbr-qbr-fb----r---"2fb----r---|

D-------------------------------------------------------------------------------------------------|
A-------------------------------------------------------------------------------------------------|
F-------------------------------------------------------------------------------------------------|
C-------------------------------------------------------------------------------------------------|
G-0-2-2-2---2-2-2--2-2-2--0-2-2-2---2-2-2--2-2-2--0-2-2-2---2-2-2--2-2-2--0-2-2-2---2-2-2--2-2-2--|
G-0-2-2-2---2-2-2--2-2-2--0-2-2-2---2-2-2--2-2-2--0-2-2-2---2-2-2--2-2-2--0-2-2-2---2-2-2--2-2-2--|

D--------------------------------------------------------------------------|
A--------------------------------------------------------------------------|
F--------------------------------------------------------------------------|
C--------------------------------------------------------------------------|
G--------------------------------------------------------------------------|
C-0-2-4fb---0-0-0--0-0-0--0-2-4fb---0-0-0--0-0-0---0-2-4fb---0-0-0--0-0-0--|


D----------|
A----------|
F----------|
C-0-2-2-2~-|
G-0-2-2-2~-|
C-0-2-2-2~-|

D---------------------------------------------------------------------------------------------|
A---------------------------------------------------------------------------------------------|
F---------------------------------------------------------------------------------------------|
C---------------------------------------------------------------------------------------------|
G---------------------------------------------------------------------------------------------|
C-"2qbr-qbr-qbr-qbr-qbr-qbr-qbr-qbr-qbr-qbr-qbr-qbr-qbr-qbr-qbr-qbr-qbr-fb----r---"2fb----r---|

D-------------------------------------------------------------------------------|
A-------------------------------------------------------------------------------|
F-------------------------------------------------------------------------------|
C-4---0--0---2~--------4--0--0--2~----------------------------------------------|
G-4---0--0---2~--------4--0--0--2~----------------------------------------------|
C-4---0--0---2~--------4--0--0--2~----5-7-7-7-7-7-7-5-7-7-7-7-7-7-4-5-5-5-5-5-5-|x2

D-------------------------------------------------------------------------------|
A-------------------------------------------------------------------------------|
F-------------------------------------------------------------------------------|
C-4---0--0---2~--------4--0--0--2~----5-7-7-7-7-7-7-5-7-7-7-7-7-7-4-5-5-5-5-5-5-|
G-4---0--0---2~--------4--0--0--2~----------------------------------------------|
C-4---0--0---2~--------4--0--0--2~----------------------------------------------|x2

D---------------|
A---------------|
F---------------|
C-4---0--0---2~-|
G-4---0--0---2~-|
C-4---0--0---2~-|

End Of Song; again like I said earlier, I will have the rest of the lead parts posted in no time!
Tap to rate this tab
# A B C D E F G H I J K L M N O P Q R S T U V W X Y Z