Song name
# A B C D E F G H I J K L M N O P Q R S T U V W X Y Z

One Direction - What Makes You Beautiful tab

What Makes you Beautiful by One Direction


This is my first tab :) but iv seen how Niall plays it in an acoustic version of the 
song and i've worked out this is how it goes :) enjoy!

Tabbed by Thomas Meany..

Intro and Verse

e----------------------------------------------------------|
b----------------------------------------------------------|
g----------------------------------------------------------|
d----------------------------------------------------------|
a-10---10s3---3s5--5--5------------------------------------|
E-11---11s4---4s6--6--6------------------------------------|

bridge


e---6--4--6------------------------------------------------|
b---8--4--6------------------------------------------------|
g---8--5--7------------------------------------------------|
d---8--6--8------------------------------------------------|
a---6--6--8------------------------------------------------|
E---6--4--6------------------------------------------------|

chorus

Every two lines in the chorus (8 lines total), pattern 1 and 2 alternate.

Pattern 1
e---6--4--6------------------------------------------------|
b---8--4--6------------------------------------------------|
g---8--5--7------------------------------------------------|
d---8--6--8------------------------------------------------|
a---6--6--8------------------------------------------------|
E---6--4--6------------------------------------------------|

Pattern 2
e---6--4--8---6---------------------------------------------|
b---8--4--8---6---------------------------------------------|
g---8--5--8---7---------------------------------------------|
d---8--6--10--8---------------------------------------------|
a---6--6--10--8---------------------------------------------|
E---6--4--8---6---------------------------------------------|

this pretty much covers the whole song acoustically... if you spot a mistake,or have a 
problem with the tab my email is meanythomas@yahoo.ie
enjoy!
Tap to rate this tab
# A B C D E F G H I J K L M N O P Q R S T U V W X Y Z