Song name
# A B C D E F G H I J K L M N O P Q R S T U V W X Y Z

One Direction - What Makes You Beautiful tab

"What Makes You Beautiful" By One Direction

Tabbed By Brandon Cabrera

Video of me singing/playing it here:
http://www.youtube.com/watch?v=BFZJ85k5XOc

Tuning: E A D G B E (Standard)(Capo on 5th fret)

 ^ = hammer on/off
 / = slide

Intro/Verse:
---------------------------|
---------------------------|
------0-----0-----0-----2--|
----0-----0-----2-----0----|
--------3-----------0------|
--3-----------0------------|

Chorus:
--------------------------------|
--------------------------------|
------2^4-----0-----0---2---0---|
----0-------0-----2-------------|
----------3-----------0---0-----|
--3-------------0---------------|

Turnaround:(play 2x)
--------------3------------------|
------1^3------------------------|
-------------------0^2---2---0---|
----0-------0----2---------------|
----------3------------0---0-----|
--3-------------0----------------|

Bridge/Solo:(play 2x)
--3/5---3---1^0------------------------------------------|
------0---0-----0----------------------------------------|
------------------0-----2-4-----4-----0-2-----2---2^0-0--|
--------------------0---------0---0---------0------------|
------------3---------3----------------------------------|
--0-------------------------3-------3-----2-----2--------|

Right before last chorus: (Finger plucking)
----------------|
----------------|
--0--0--0--2----|
--0--0--2--0----|
-----3-----0----|
--3-----0-------|

Enjoy the Tabs. Feel free to
check out my YouTube Channel and watch these tabs in action.
Thank You. :)
 - Brandon
http://www.youtube.com/brandoncabrera19
Tap to rate this tab
# A B C D E F G H I J K L M N O P Q R S T U V W X Y Z