Song name
# A B C D E F G H I J K L M N O P Q R S T U V W X Y Z

One Direction - More Than This tab

-------------------------------------------------------------------------------
                 MORE THAN THIS - One Direction
-------------------------------------------------------------------------------

Tabbed by: Christie

Tuning: Standard Capo 5

Tab relative to capo

e|------3-------3-------3-------3-------3-------3-------3-------3---|
B|--------3-------3-------3-------3-------3-------3-------3-------3-|
G|------------------------------------2-------2---------------------|
D|----------------------------------0-------0---------0-------2-----|
A|---2--------2-------2-------2---------------------2-------3-------|
E|-3--------3-------0-------0---------------------------------------|
Tap to rate this tab
 
# A B C D E F G H I J K L M N O P Q R S T U V W X Y Z