Song name
# A B C D E F G H I J K L M N O P Q R S T U V W X Y Z

One Direction - What Makes You Beautiful tab

"What Makes You Beautiful" by One Direction
tabbed by You Ruined It.

Figured out all the parts in the studio recording. Listen to the song for the exact 
rhythm. Lyrics are used only to identify each part of the song. Enjoy!

Intro/Verse: (play 3x)
e|-----------------------------------------------|
B|-----------------------------------------------|
G|-------------------------9---------------------|
D|-6---6-7---7-9--9-9-9----9---9-7---7-9--9-9-9--|
A|-7---7-7---7-9--9-9-9----7---7-7---7-9--9-9-9--|
E|-0---0-5---5-7--7-7-7----0---0-5---5-7--7-7-7--|

Pre-Chorus: (play 1x)
   (Everyone else in the room...)
e|-----------------------------------------------------|
B|-----------------------------------------------------|
G|--9--9--9--9--9--9--9--9--9--9--9--9--9~-------------|
D|--x--x--x--x--x--x--x--x--x--x--x--x--x~-------------|
A|--7--7--7--7--7--7--7--7--7--7--7--7--7~-------------|
E|-----------------------------------------------------|
 |
e|-----------------------------------------------------|
B|-----------------------------------------------------|
G|--9----9------------------9----9---------------------|
D|--9----9--7---7--11--9-9--9----9--7---9~-------------|
A|--7----7--7---7--11--9-9--7----7--7---9~-------------|
E|----------5---5--9---7-7----------5---7~-------------|

Chorus: (play 1x)
  (Baby you light up my world...)
e|---------------------------------------------------------|
B|---------------------------------------------------------|
G|---------------------------------------------------------|
D|-2----2--7----7--9---9--------2----2--7----7--9---9------|
A|-2----2--7----7--9---9--------2----2--7----7--9---9------|
E|-0----0--5----5--7---7--------0----0--5----5--7---7------|

  (But when you smile...)
e|-----------------------------------------------------|
B|-----------------------------------------------------|
G|-----------------------------------------------------|
D|-2----2--7-------11--9--------2---------------9~-----|
A|-2----2--7-------11--9--------2---------------9~-----|
E|-0----0--5-------9---7--------0---------------7~-----|

  (If only you'd see...)
e|------------------------------------------------------------------|
B|------------------------------------------------------------------|
G|------------------------------------------------------------------|
D|-2--2--2--7--7--7--9--9--9--9--9--2--2--2--7--7--7--9--9--9--9--9-|
A|-2--2--2--7--7--7--9--9--9--9--9--2--2--2--7--7--7--9--9--9--9--9-|
E|-0--0--0--5--5--5--7--7--7--7--7--0--0--0--5--5--5--7--7--7--7--7-|

  (Right now I'm looking...)
e|-----------------------------------------------------------|
B|-----------------------------------------------------------|
G|-----------------------------------------------------------|
D|-2--2--2--7--7--7--11--11--9---2--2--2--7--7--7--9--9---9--|
A|-2--2--2--7--7--7--11--11--9---2--2--2--7--7--7--9--9---9--|
E|-0--0--0--5--5--5--9---9---7---0--0--0--5--5--5--7--7---7--|
 |
e|-----------------------------------------------------------|
B|-----------------------------------------------------------|
G|-----------------------------------------------------------|
D|----------------------------------------9-11-9-------------|
A|------------------------------------9-11------11~----------|
E|-----------------------------------------------------------|

  (That's what makes you...)
e|--------------------------------|
B|--------------------------------|
G|--------------------------------|
D|-2--2--2--7--7--7x----9--9--9---|
A|-2--2--2--7--7--7x----9--9--9---|
E|-0--0--0--5--5--5x----7--7--7---|
 |
e|--------------------------------|
B|--------------------------------|
G|--------------------------------|
D|---------9-11-9-----------------|
A|-----9-11------11~--------------|
E|--------------------------------|

Post-Chorus: (play 1x)
e|-----------------------|
B|-----------------------|
G|-----------------------|
D|-6---6-7-----11--9--9--|
A|-7---7-7-----11--9--9--|
E|-0---0-5-----9---7--7--|

Repeat Intro/Verse: (play 2x)
Repeat Pre-Chorus: (play 1x)
Repeat Chorus: (play 1x)

Bridge: (play 4x)
   (Na na na na...)
e|-----------------------------|
B|---------------------9-------|
G|--9--9--9--9--9--9-11-11-9---|
D|--x--x--x--x--x--x-----------|
A|--7--7--7--7--7--7-----------|
E|-----------------------------|
 |
e|-----------------------------|
B|-----------------------------|
G|--9----9---------------------|
D|--9----9--7---7--11--9-9-----|
A|--7----7--7---7--11--9-9-----|
E|----------5---5--9---7-7-----|

Post-Bridge: (play 1x)
   (Baby you light up...)
    A          B          A           B
e|----------------------------------------------|
B|--------5----------7----------5----------7----|
G|----6----------8----------6----------8--------|
D|----------------------------------------------|
A|--7---7---7-/9---9---9-\7---7---7-/9---9---9--|
E|----------------------------------------------|

  (But when you smile...)
    A           B          C#m
e|-------------------------------4~-------------|
B|--------5----------7---------5----------------|
G|----6----------8-----------6------------------|
D|----------------------------------------------|
A|-\7---7---7-/9---9---9---4--------------------|
E|----------------------------------------------|

End Chorus: (play 2x)
e|------------------------------------------------------------------|
B|------------------------------------------------------------------|
G|------------------------------------------------------------------|
D|-2--2--2--7--7--7--9--9--9--9--9--2--2--2--7--7--7--9--9--9--9--9-|
A|-2--2--2--7--7--7--9--9--9--9--9--2--2--2--7--7--7--9--9--9--9--9-|
E|-0--0--0--5--5--5--7--7--7--7--7--0--0--0--5--5--5--7--7--7--7--7-|

   (But when you smile...)
e|-----------------------------------------------------------|
B|-----------------------------------------------------------|
G|-----------------------------------------------------------|
D|-2--2--2--7--7--7--11--11--9---2--2--2--7--7--7--9--9---9--|
A|-2--2--2--7--7--7--11--11--9---2--2--2--7--7--7--9--9---9--|
E|-0--0--0--5--5--5--9---9---7---0--0--0--5--5--5--7--7---7--|
 |
e|-----------------------------------------------------------|
B|-----------------------------------------------------------|
G|-----------------------------------------------------------|
D|----------------------------------------9-11-9-------------|
A|------------------------------------9-11------11~----------|
E|-----------------------------------------------------------|

End Chorus 2: (play 1x)
e|--------------------------------|
B|--------------------------------|
G|--------------------------------|
D|-2--2--2--7--7--7-----9--9--9---|
A|-2--2--2--7--7--7-----9--9--9---|
E|-0--0--0--5--5--5-----7--7--7---|
 |
e|--------------------------------|
B|--------------------------------|
G|--------------------------------|
D|---------9-11-9-----------------|
A|-----9-11------11~--------------|
E|--------------------------------|

e|---------------------------------|
B|---------------------------------|
G|---------------------------------|
D|-2--2--2--7--7--7x----9--9--9--2-|
A|-2--2--2--7--7--7x----9--9--9--2-|
E|-0--0--0--5--5--5x----7--7--7--0-|
 |
e|---------------------------------|
B|---------------------------------|
G|-------------------------------9-|
D|---------9-11-9----------------9-|
A|-----9-11------11~-------------7-|
E|---------------------------------|
Tap to rate this tab
# A B C D E F G H I J K L M N O P Q R S T U V W X Y Z