Song name
# A B C D E F G H I J K L M N O P Q R S T U V W X Y Z

One Direction - One Thing tab

One Direction - One Thing

Go to my video for full tabs @ http://www.youtube.com/user/anjelloguitar

|-------3-3-3-------------3-3-3-------|
|--1-1--3-3-3--1-1---1-1--3-3-3--1-1--|
|--0-0--0-0-0--0-0---0-0--0-0-0--0-0--|
|--2-2--0-0-0--2-2---2-2--0-0-0--2-2--|
|--3-3--2-2-2--3-3---3-3--2-2-2--3-3--|
|-------3-3-3-------------3-3-3-------|

|-------3-3-3-------------3-3-3-------|
|--1-1--3-3-3--0-0---0-0--3-3-3--1-1--|
|--0-0--0-0-0--2-2---2-2--0-0-0--0-0--|
|--2-2--0-0-0--2-2---2-2--0-0-0--2-2--|
|--3-3--2-2-2-------------2-2-2--3-3--|
|-------3-3-3-------------3-3-3-------|

|-------3-3-------|
|--1-1--3-3--1-1--|
|--0-0--0-0--0-0--|
|--2-2--0-0--2-2--|
|--3-3--2-2--3-3--|
|-------3-3-------|


Go to my video for full tabs @ http://www.youtube.com/user/anjelloguitar
Tap to rate this tab
# A B C D E F G H I J K L M N O P Q R S T U V W X Y Z