Song name
# A B C D E F G H I J K L M N O P Q R S T U V W X Y Z

One Direction - One Thing tab

Band:One Direction
Song: One Thing
Album: Up All Night


I was listening to this song and i thought the intro was really cool so i decided to 
make a tab for it. It's my first one so don't expect too much out of it!!!!

Here it is!!!!

Finger Pick this song.
Use your Thumb on the low string and your index, middle or ring finger for the higher 
string. Whichever is more comfortable but I prefere the middle finger.

E--2---2----------2----2-----2---2---------------2----2---|
B--------2--2--2------------------------2--2--2-----------|
G---------------------------------------------------------|
D--0---0----------0----0-----0---0---------------0----0---|
A--------0--0--0------------------------0--0--0-----------|
E---------------------------------------------------------|
                          I've tried  playing it  cool


E--2---2---5---5-----------------------------------------------------0------|
B-------------------0---0----0---0---2---2---3---3---3---3---3---3----------|
G---------------------------------------------------------------------------|
D--0---0---0---0---------------------------------------------------------4--|
A------------------------------------0---0---2---2---2---------------0---5--|
E-------------------3---3----3---3-----------------------3---3---3----------|

Girl when i'm        you     I can't         brave cause           heart
         looking at                 ever be             you make my     race
Tap to rate this tab
 
# A B C D E F G H I J K L M N O P Q R S T U V W X Y Z