Guitaretab - guitar tabs
Song name
# A B C D E F G H I J K L M N O P Q R S T U V W X Y Z

One Direction - Little Things tab

Little Things By One Direction Tab:
Capo on 7th Fret

Intro:
e-----0----------0----------0-------0--------------------------------------|
B------3-----------3---------3-------3--3-----3-3-------3--3-----1--3------|
G---0---0------0-----------2---2--2--------2------0---0------0--2--4-------|
D--------------------0-2-3------3------------------------------3- 5--------|
A-3-------3-------------------------------0---0-0--------------------------|
E---------------------------------------------------3---3--3---------------|

Verse 1 (Same Tab as Intro):
[Zayn]
e-----0----------0----------0-------0------------------------------------|
B------3-----------3---------3-------3--3-----3-3-------3--3-----1--3----|
G---0---0------0-----------2---2--2--------2------0---0------0--2--4-----|(3x)
D--------------------0-2-3------3------------------------------3- 5------|
A-3-------3-------------------------------0---0-0------------------------|
E---------------------------------------------------3---3--3-------------|
Your hand fits in mine
Like it's made just for me
But bear this in mind
It was meant to be
And I'm joining up the dots with the freckles on your cheeks
And it all makes sense to me

[Liam]
e-----0----------0----------0-------0------------------------------------|
B------3-----------3---------3-------3--3-----3-3-------3--3-----1--3----|
G---0---0------0-----------2---2--2--------2------0---0------0--2--4-----|(3x)
D--------------------0-2-3------3------------------------------3- 5------|
A-3-------3-------------------------------0---0-0------------------------|
E---------------------------------------------------3---3--3-------------|
I know you've never loved
The crinkles by your eyes
When you smile
You've never loved
Your stomach or your thighs,
The dimples in your back at the bottom of your spine
But I'll love them endlessly

Chorus:
Dm, F, Am7, G

[CHORUS]
e-----1----------0----------0-------0---|
B------3-----------1---------1-------2--|
G---2---2-----2-----2----0-----0---0--0-|     [3x]
D-0---------3---------------------------|
A---------------------0-----------------|
E--------------------------------3------|
I won't let these little things slip out of my mouth
But if I do, it's you - oh it's you, they add up to
I'm in love with you, and all these little things
[ Tab from: http://www.guitaretab.com/o/one-direction/335775.html ]
Verse 2:
[Louis]
e-----0----------0----------0-------0------------------------------------|
B------3-----------3---------3-------3--3-----3-3-------3--3-----1--3----|
G---0---0------0-----------2---2--2--------2------0---0------0--2--4-----|(3x)
D--------------------0-2-3------3------------------------------3- 5------|
A-3-------3-------------------------------0---0-0------------------------|
E---------------------------------------------------3---3--3-------------|
You can't go to bed without a cup of tea
And maybe that's the reason that you talk in your sleep
And all those conversations are the secrets that I keep
Though it makes no sense to me

[Harry]
e-----0----------0----------0-------0------------------------------------|
B------3-----------3---------3-------3--3-----3-3-------3--3-----1--3----|
G---0---0------0-----------2---2--2--------2------0---0------0--2--4-----|(3x)
D--------------------0-2-3------3------------------------------3- 5------|
A-3-------3-------------------------------0---0-0------------------------|
E---------------------------------------------------3---3--3-------------|
I know you've never loved
The sound of your voice on tape
You never want
To know how much you weigh
You still have to squeeze into your jeans
But you're perfect to me

[CHORUS]
e-----1----------0----------0-------0---|
B------3-----------1---------1-------2--|
G---2---2-----2-----2----0-----0---0--0-|     [3x]
D-0---------3---------------------------|
A---------------------0-----------------|
E--------------------------------3------|
I won't let these little things slip out of my mouth
But if I do, it's you - oh it's you, they add up to
I'm in love with you, and all these little things


Bridge: Same Tab as Chorus:
[Niall]
e-----1----------0----------0-------0---|
B------3-----------1---------1-------2--|
G---2---2-----2-----2----0-----0---0--0-|
D-0---------3---------------------------|     [3x]
A---------------------0-----------------|
E--------------------------------3------|

You'll never love yourself half as much as I love you
And you'll never treat yourself right, darling, but I want you to.
If I let you know I'm here for you
Maybe you'll love yourself like I love you, oh.

(Back to Chorus)




=============================================================================
Originally Tabbed by Todd Downing.
I just fixed it a little bit.
Watch the tutorial of this song:
http://www.youtube.com/watch?v=2q7B-8ydXrU

=============================================================================
Related for Little Things tab
Little Things chords by One Direction