Song name
# A B C D E F G H I J K L M N O P Q R S T U V W X Y Z

One Direction - They Dont Know About Us tab

One Direction - They Don't Know About Us
No Capo
Standard Tuning
Chords Used Throughout the whole song: F,C,G,Am
      
Intro:

       F                  C          F              G        Am  
e|----0----------------|------------|---0---------|-----------|-------|
b|--3--3--1----------1-|------------|-3---3-1-----|--------0--|-1-----|
g|----------2-0--2-----|------------|----------2--|0----------|-0-----|
D|---------------------|-2----------|-------------|--2--------|-------|
A|---------------4-----|-3----------|-------------|-----------|-0-----|
E|---------------------|------------|-------------|--3--------|-------|

       F                  C          F              G          
e|----0----------------|------------|---0---------|------------------|
b|--3--3--1----------1-|------------|-3---3-1-----|--------0---0-----|
g|----------2-0--2-----|------------|----------2--|0-----------------|
D|---------------------|-2----------|-------------|--2---------------|
A|---------------4-----|-3----------|-------------|------------------|
E|---------------------|------------|-------------|--3---------3-----|

Verse:
F                 C
People say we shouldn't be together
G                   Am
We're too young to know about forever
F              C                 G
But I say they don't know what they talk talk talking about

F                 C
Cause this love is only getting stronger
G                 Am
So I don't wanna wait any longer
F            C                         G
I just wanna tell the world that your mine girl 

Oh

Chorus:
                            F        C
They don't know about the things we do
                          G         Am
They don't know about the I love you's
                       F      C
But I bet you if they only knew
             G
They would just be jealous of us
                           F       C
They don't know about the up all night's
                             G      Am
They don't know I've waited all my life
                            F         C
Just to find a love that feels this right

      G
Baby they don't know about
They don't know about us

Verse 2:
F                    C
Just one touch and I was a believer
G              Am
Every kiss it gets a little sweeter
F               C
It's getting better
G
Keeps getting better all the time girl

Chorus:
                            F        C
They don't know about the things we do
                          G         Am
They don't know about the I love you's
                       F      C
But I bet you if they only knew
             G
They would just be jealous of us
                           F       C
They don't know about the up all night's
                             G      Am
They don't know I've waited all my life
                            F         C
Just to find a love that feels this right

      G
Baby they don't know about
They don't know about us

Bridge:
F                   C
They don't know how special you are
G                           Am
They don't know what you’ve done to my heart
F                     C
They can say anything they want
G
Cause they don't know about us

F                    C
They don't know what we do best
G                          Am
That's between me and you our little secret

F                 C
But I wanna tell 'em
                          G
I wanna tell the world that your mine girl

Chorus:
(2x)
                            F        C
They don't know about the things we do
                          G         Am
They don't know about the I love you's
                       F      C
But I bet you if they only knew
             G
They would just be jealous of us
                           F       C
They don't know about the up all night's
                             G      Am
They don't know I've waited all my life
                            F         C
Just to find a love that feels this right

      G
Baby they don't know about
They don't know about us


       F                  C          F              G        Am  
e|----0----------------|------------|---0---------|-----------|-------|
b|--3--3--1----------1-|------------|-3---3-1-----|--------0--|-1-----|
g|----------2-0--2-----|------------|----------2--|0----------|-0-----|
D|---------------------|-2----------|-------------|--2--------|-------|
A|---------------4-----|-3----------|-------------|-----------|-0-----|
E|---------------------|------------|-------------|--3--------|-------|

       F                  C          F              G          
e|----0----------------|------------|---0---------|------------------|
b|--3--3--1----------1-|------------|-3---3-1-----|--------0---0-----|
g|----------2-0--2-----|------------|----------2--|0-----------------|
D|---------------------|-2----------|-------------|--2---------------|
A|---------------4-----|-3----------|-------------|------------------|
E|---------------------|------------|-------------|--3---------3-----|

Tap to rate this tab
# A B C D E F G H I J K L M N O P Q R S T U V W X Y Z