Song name
# A B C D E F G H I J K L M N O P Q R S T U V W X Y Z

One Direction - Irresistible tab

The actual song has a series of trills through the intro and the verses, but I can't 
seem to figure out what they are! I believe them to be hammer ons of some kind, but whether 
or not they are -3h0- ones, I have no idea. I say improvise!

Either way, this is the base of the song without the fancy stuff, so its just a matter 
of doing what you can with this template. It still sounds nice just like this!

Also, the part in which they all sing 'irresistible' together with a five part harmony 
uses the same tab as the chorus, I just decided not to write it out, as it's not 
something a person can physically sing acoustically.

It ends on a strum.

Enjoy! And if you have any questions, message me on tumblr, or leave a comment on the tab.

http://screaminthisdream.tumblr.com/


***I have made a cover video with this tab, watch it here!
http://www.youtube.com/watch?v=4E5x82IwMLU



INTRO

E|--------------------------------------------|
B|-----3h0---3---3---3----3h0---3---3---3-----|
G|-----------0---0---0----------0---0---0-----|     (x2)
D|---5---------5---5---5----------5---5----5--|
A|--------------------------------------------|
E|--------------------------------------------|



VERSE (Harry)

E|---------------------------------------------------------------------|
B|----3---3---3---3---3---3---3---3---3---3---3---3---3---3---3---3----|
G|----0---0---0---0---0---0---0---0---0---0---0---0---0---0---0---0----|
D|--5---5---4---4---2---2---0---0-------------------2---2---4---4------|
A|----------------------------------3---3---3---3----------------------|
E|---------------------------------------------------------------------|

Don't try to make me stay, or ask if I'm okay, I don't have the answers


E|---------------------------------------------------------------------|
B|----3---3---3---3---3---3---3---3---3---3---3---3---3---3---3---3----|
G|----0---0---0---0---0---0---0---0---0---0---0---0---0---0---0---0----|
D|--5---5---4---4---2---2---0---0-------------------2---2---4---4------|
A|----------------------------------3---3---3---3----------------------|
E|---------------------------------------------------------------------|

Don't make me stay the night, or ask if I'm alright, I don't have the answer






VERSE (Liam)

E|---------------------------------------------------------------------|
B|----3---3---3---3---3---3---3---3----3---3---3---3---3---3---3---3---|
G|----0---0---0---0---0---0---0---0----0---0---0---0---0---0---0---0---|
D|------------------2---2---0---0--------------------0---0---0---0-----|
A|--2---2---3---3--------------------2---2---3---3---------------------|
E|---------------------------------------------------------------------|

Heartache doesn't last forever, I'll say I'm fine

E|---------------------------------------------------------------------|
B|----3---3---3---3---3---3---3---3----3---3---3---3---3---3-----------|
G|----0---0---0---0---0---0---0---0----0---0---0---0---0---0-----------|
D|------------------2---2---0---0--------------------0---0---0---------|
A|--2---2---3---3--------------------2---2---3---3---------------------|
E|---------------------------------------------------------------------|

Midnight ain't no time for laughing, When you say goodbye



CHORUS


E|-------------------------------------------------------------------|
B|----3---3---3---3---3---3---3---3----3---3---3---3---3---3---3---3-|
G|----0---0---0---0---0---0---0---0----0---0---0---0---0---0---0---0-|
D|-------------------------------------------------------------------|
A|--3---3---2---2---0---0------------3---3---2---2---0---0-----------|
E|--------------------------3---3----------------------------3---3---|

It makes your lips so kissable, And your kiss unmissable


E|------------------------------------|
B|----3---3---3---3---3---3---3---3---|
G|----0---0---0---0---0---0---0---0---|
D|------------------------------------|
A|--3---3---2---2---0---0---2---2-----|
E|------------------------------------|

Your fingertips, so touchable

E|-----------------------------|
B|----1---1---1---1------------|
G|----0---0---0---0------------|
D|-----------------------------|
A|--0---0---0---0----------3---|
E|-----------------------------|

And your eyes                    Irresistible



Instrumental

E|-----------------------------------------------------|
B|----3---3---3---3---3---3---3---3---3---3---3---3----|
G|----0---0---0---0---0---0---0---0---0---0---0---0----|
D|--5---5---4---4---2---2---0---0---------------0------|
A|----------------------------------3---2---0----------|
E|-----------------------------------------------------|



VERSE (Niall)


E|---------------------------------------------------------------------|
B|----3---3---3---3---3---3---3---3---3---3---3---3---3---3---3---3----|
G|----0---0---0---0---0---0---0---0---0---0---0---0---0---0---0---0----|
D|--5---5---4---4---2---2---0---0-------------------2---2---4---4------|
A|----------------------------------3---3---3---3----------------------|
E|---------------------------------------------------------------------|

I try to ask myself, should I see someone else, I wish I knew the answer


(Harry)

E|---------------------------------------------------------------------|
B|----3---3---3---3---3---3---3---3---3---3---3---3---3---3---3---3----|
G|----0---0---0---0---0---0---0---0---0---0---0---0---0---0---0---0----|
D|--5---5---4---4---2---2---0---0-------------------2---2---4---4------|
A|----------------------------------3---3---3---3----------------------|
E|---------------------------------------------------------------------|

But I know, If I go now, If I leave, then Iím on my own tonight, Iíll never know the answer




VERSE (Liam)

E|---------------------------------------------------------------------|
B|----3---3---3---3---3---3---3---3----3---3---3---3---3---3---3---3---|
G|----0---0---0---0---0---0---0---0----0---0---0---0---0---0---0---0---|
D|------------------2---2---0---0--------------------0---0---0---0-----|
A|--2---2---3---3--------------------2---2---3---3---------------------|
E|---------------------------------------------------------------------|

Midnight doesnít last forever, dark turns to light

E|---------------------------------------------------------------------|
B|----3---3---3---3---3---3---3---3----3---3---3---3---3---3-----------|
G|----0---0---0---0---0---0---0---0----0---0---0---0---0---0-----------|
D|------------------2---2---0---0--------------------0---0---0---------|
A|--2---2---3---3--------------------2---2---3---3---------------------|
E|---------------------------------------------------------------------|

Midnight ain't no time for laughing, When you say goodbye





CHORUS

E|-------------------------------------------------------------------|
B|----3---3---3---3---3---3---3---3----3---3---3---3---3---3---3---3-|
G|----0---0---0---0---0---0---0---0----0---0---0---0---0---0---0---0-|
D|-------------------------------------------------------------------|
A|--3---3---2---2---0---0------------3---3---2---2---0---0-----------|
E|--------------------------3---3----------------------------3---3---|

It makes your lips so kissable, And your kiss unmissable


E|------------------------------------|
B|----3---3---3---3---3---3---3---3---|
G|----0---0---0---0---0---0---0---0---|
D|------------------------------------|
A|--3---3---2---2---0---0---2---2-----|
E|------------------------------------|

Your fingertips, so touchable

E|-----------------------------|
B|----1---1---1---1------------|
G|----0---0---0---0------------|
D|-----------------------------|
A|--0---0---0---0----------3---|
E|-----------------------------|

And your eyes                    Irresistible






BRIDGE (Harry)

E|---------------------------------------------------------------------|
B|----3---3---3---3---3---3---3---3-----3---3---3---3---3---3---3---3--|
G|----0---0---0---0---0---0---0---0-----0---0---0---0---0---0---0---0--|
D|----------0---0-----------------------------0---0--------------------|
A|--3---3-----------------------------3---3----------------------------|
E|------------------3---3---0---0---------------------3---3---3---3----|

It's in your lips and in your kiss, It's in your touch and your finger tiPS


E|---------------------------------------------------------------------|
B|----3---3---3---3---3---3---3---3-----1---1---1---1---1---1---1---1--|
G|----0---0---0---0---0---0---0---0-----0---0---0---0---0---0---0---0--|
D|----------0---0------------------------------------------------------|
A|--3---3-----------------------------0---0---0---0---3---3---3---3----|
E|------------------3---3---0---0--------------------------------------|

And it's in all the things and other things that make you who you are and your eyes irresistible





CHORUS

E|-------------------------------------------------------------------|
B|----3---3---3---3---3---3---3---3----3---3---3---3---3---3---3---3-|
G|----0---0---0---0---0---0---0---0----0---0---0---0---0---0---0---0-|
D|-------------------------------------------------------------------|
A|--3---3---2---2---0---0------------3---3---2---2---0---0-----------|
E|--------------------------3---3----------------------------3---3---|

It makes your lips so kissable, And your kiss unmissable


E|------------------------------------|
B|----3---3---3---3---3---3---3---3---|
G|----0---0---0---0---0---0---0---0---|
D|------------------------------------|
A|--3---3---2---2---0---0---2---2-----|
E|------------------------------------|

Your fingertips, so touchable

E|-----------------------------|
B|----1---1---1---1------------|
G|----0---0---0---0------------|
D|-----------------------------|
A|--0---0---0---0----------3---|
E|-----------------------------|

And your eyes                    Irresistible





OUTRO

E|---------------------------------------------------------------------3--|
B|-----3h0---3---3---3----3h0---3---3---3-----3h0---3---3---3----------3--|
G|-----------0---0---0----------0---0---0-----------0---0---0----------0--|
D|---5---------5---5---5----------5---5----5----------5---5----5-------5--|
A|------------------------------------------------------------------------|
E|------------------------------------------------------------------------|
Tap to rate this tab
# A B C D E F G H I J K L M N O P Q R S T U V W X Y Z