Song name
# A B C D E F G H I J K L M N O P Q R S T U V W X Y Z

One Direction - Kiss You tab

Hi guys! I hope this is accurate and you like it! :)
 
Kiss you by One Direction.

Verse:

e----------16-------------------------------|   
B-17-17-17---17-14-14--14-14-14-17-17-16-16-|
G-------------------------------------------|
D-------------------------------------------|  
A-------------------------------------------|
E-------------------------------------------|

For the Chorus you can play lanahoran's chords: E A C#m B

Bridge:

e-12-12-12-9--9------|
B-----------12-------|
G--------------9-9---|
D--------------------|  x2 
A--------------------|
E--------------------|

e-9-9-9-------9-9--|
B------12-9-12-----|
G------------------|    x2
D------------------|  
A------------------|
E------------------|
 
e-12-12-12-9--9------|
B-----------12-------|
G--------------9-9---|
D--------------------|  x2 
A--------------------|
E--------------------|

e-9-9-9-------9-9--|
B------12-9-12-----|
G------------------|    
D------------------|  
A------------------|
E------------------|

Then you can only play the chords :) Bye!!  -G
Tap to rate this tab
# A B C D E F G H I J K L M N O P Q R S T U V W X Y Z