Song name
# A B C D E F G H I J K L M N O P Q R S T U V W X Y Z

One Direction - Little Things tab

Little Things
Intro

Strumming of chords: DUD

           G.                                    Cadd9                                      E
E|---3---------------3----------------------------------------------0--------------|
B|-----2---------2-----2-------0-2-3---------3----------------------2-----------2--|
G|--------0---0-----------0-------------2---------2-----------2----------2----2----|
D|--------0----------------0----------------0--------0----0---------------0--------|
A|--------3----------------3----------------3--------3-----------------------------|
E|---------------------------------------------------------------------------------|

              E.                                     C.                 D.   G
E|----0---------------------------------------------------3-----------|
B-------2-----------2----3---------------------------------2----------|
G|-----------2----2----------2---------0------------------------------|
D|-----------0--------------------0--------2----2---------------0-----|
A|---------------------------------1---------------3---------------3--|
E|---------------------------------0---------------2------------------|

Verse 1
G
Your hand fits in mine like itís made just for me
Cadd9
But bear this in mind, it was meant to be
E
And Iím joining up the dots, with the freckles on your cheeks
C.                   D.                        G
And it all makes sense to me

G
I know youíve never loved the crinkles by your eyes when you smile
Cadd9
Youíve never loved your stomach or your thighs
E
The dimples in your back at the bottom of your spine
C.             D.                  G
But iíll love them endlessly

Chorus (one strum per chord)
G.                                                               C
I wonít let these little things slip out of my mouth
E.                    C.             D
But if I do, itís you, oh itís you
D.                               G
They add up to, iím in love with you

And all these little things

Verse 2 (back to strumming)

You canít go to bed without a cup of tea
And maybe thatís the reason you talk in your sleep
And all those conversations are the secrets that I keep
Though it makes no sense to me

I know youíve never love the sound of your voice on tape
You never want to know how much you weight
You still have to squeeze into your jeans
But youíre perfect to me

Chorus

I wonít let these little things slip out of my mouth
But if itís true, itís you, itís you
They add up to, iím in love with you
And all these little things

Bridge
Em.                                           G.             C.                    D.
Youíll never love yourself half as much as I love you,
Em.                                            G.             C.                      D
youíll never treat yourself right darliní But I want you to
C.                               G.         C D
If I let you know iím here for you
G.                                                  C.  D.      C  G
Maybe youíll love yourself like I love you, oh

Chorus (One strum per chord)

Iíve just let these little things out of my mouth
Cause itís you, oh itís you, itís you
They add up to, and iím in love with you
And all these little things

(Back to strumming)
I wonít let these little things slip out of my mouth
But if itís true, itís you, itís you
They add up to, iím in love with you
And all your little things
Tap to rate this tab
# A B C D E F G H I J K L M N O P Q R S T U V W X Y Z