Song name
# A B C D E F G H I J K L M N O P Q R S T U V W X Y Z

One Direction - One Thing tab

Intro
E||-0-----0-----3---3---3-----|-0------X--0---------------||
B||-1-----1-----0---0---0-----|-1------X--1---------------||
G||-0-----0-----0---0---0-----|-0------X--0---------------||
D||-2-----2-----0---0---0-----|-2------X--2---------------||
A||-3-----3-----2---2---2-----|-3------X--3---------------||
E||-0-----0-----3---3---3-----|-0------X--0---------------||

Verse 1
E||---------------------------|-0-----0-------------------||
B||-1--1------3--3-----s5-----|-------1---------1---------||
G||---------------------------|-----0---------0-----------||
D||---------------------------|---2-----------------------||
A||-3---------3---------------|-3-------------------------||
E||---------------------------|---------------------------||

E||-0---0-0---3-3-3-3-s5------|-5-----X-------------------||
B||---------------------------|-------X---------6---------||
G||---------------------------|-------X-------5-----------||
D||---------------------------|-3-----X--3----------------||
A||-3---------3---------------|-------X-------------------||
E||---------------------------|-------X-------------------||

E||-5---5--------3-3-3-s5-----|-0-----0-------------------||
B||--------------3------------|-------1------------1------||
G||--------------4------------|-----2------------2--------||
D||-3------------3------------|---2-----------------------||
A||--------------3------------|-0-------------------------||
E||--------------3------------|---------------------------||

E||-----0-----0---------------|---------------------------||
B||---------1-------1---------|--3-----1------------------||
G||-------2-------0-----------|------0--------------------||
D||-----3---------------------|----2----------------------||
A||---------------------------|--3------------------------||
E||-------------3-------------|---------------------------||

E||---------------------------|-0-------------------------||
B||--1-----1-----3--3--3--s5--|---------------------------||
G||---------------------------|---------------------------||
D||---------------------------|---------------------------||
A||--3-----3------------------|-3------3------------------||
E||--------------3-----3------|---------------3------3----||





E||--0-----0--0--3--3--3-s5---|-5-------------------------||
B||---------------------------|---------------------------||
G||---------------------------|---------------------------||
D||---------------------------|-3------3------------------||
A||--3-----3------------------|---------------3------3----||
E||--------------3-----3------|---------------------------||

E||--5-----5--5--3--3--3-h5---|-0-------------------------||
B||---------------------------|------------3---------1----||
G||---------------------------|---------------------------||
D||--3-----3------------------|---------------------------||
A||---------------------------|-0------0------------------||
E||--------------3-----3------|---------------3------3----||

E||-0-----X---0---------------|-------------------------3-||
B||-------X------------1------|--3------1-----------------||
G||-------X----------2--------|-----------------------0---||
D||-3-----X---3---------------|---------------------2-----||
A||-------X-------------------|---------3-----------------||
E||-------X-------------------|--3-3----------------------||


Refrain
E||-s8--8---------------------|-----------------3--3--3---||
B||--------8--8--6--6--5------|---------------------------||
G||---------------------------|---------------------------||
D||---------------------------|---------------------------||
A||--8--8--8--8--8--8--8--8---|--3--3--3--3--3--3--3--3---||
E||---------------------------|---------------------------||

E||-s8--8---------------------|-----------------3--3--3---||
B||--------8--8--6-----5------|--3------------------------||
G||---------------------------|---------------------------||
D||---------------------------|---------------------------||
A||--0--0--0--0--0--0--0--0---|---------------------------||
E||---------------------------|--3--3--3--3--3--3--3--3---||

E||-s8--8---------------------|---------------------------||
B||--------8--8--6--6--5------|--------------------1------||
G||---------------------------|---------------------------||
D||---------------------------|---------------------------||
A||--8--8--8--8--8--8--8--8---|--3--3--3--3--2--2--2--2---||
E||---------------------------|---------------------------||

E||-0----X--0-----------------|---------------------------||
B||------X---------1----------|-3------1------------------||
G||------X--------------------|---------------------------||
D||------X--------------------|---------------------------||
A||-0----X--0-----------------|---------------------------||
E||------X--------------------|--------------------3s8s3--||



Chorus
E||---0---X----0---0-------0-3|-0-------------0---X----0--||
B||-3-----X--3-----------3----|-------------3-----X--3----||
G||-------X-------------------|---------0---------X-------||
D||-------X--3---3---3--------|-------2-----------X--3---3||
A||-3-----X-------------------|-3---3-------3-----X-------||
E||-------X--------------3-3--|-------------------X-------||

E||-0-----------X--0----------|---0---X----0---0-------0--||
B||-------3-----X-------------|-3-----X--3-----------3----||
G||-------------X----------0--|-------X-------------------||
D||---3---------X--------2----|-------X--3---3---3--------||
A||-------------X--3---3------|-3-----X-------------------||
E||-------3-3---X-------------|-------X--------------3-3--||

E||3-0----------0---X--0------|-------X--------------0---X||
B||-----------------X-------1-|--3----X--1---------------X||
G||----------0------X-----0---|-------X----------0-------X||
D||--------2--------X---------|-------X--------2---------X||
A||--3---3------0---X--0------|--3-3--X--3---3-------0---X||
E||-----------------X---------|-------X------------------X||

E||--0-------------X----------||
B||-------1--------X--3--1----||
G||-----0----------X----------||
D||----------------X----------||
A||--0-------------X-----3----||
E||----------------X--3-------||

Interlude
E||-0-----0-----3---3---3-----|-0------X--0---------------||
B||-1-----1-----0---0---0-----|-1------X--1---------------||
G||-0-----0-----0---0---0-----|-0------X--0---------------||
D||-2-----2-----0---0---0-----|-2------X--2---------------||
A||-3-----3-----2---2---2-----|-3------X--3---------------||
E||-0-----0-----3---3---3-----|-0------X--0---------------||

Verse 2
E||---------------------------|-0-------------------------||
B||--1-----1-----3--3--3--s5--|---------------------------||
G||---------------------------|---------------------------||
D||---------------------------|---------------------------||
A||--3-----3------------------|-3------3------------------||
E||--------------3-----3------|---------------3------3----||

E||--0-----0--0--3--3--3--s5---|-5-------------------------||
B||---------------------------|---------------------------||
G||---------------------------|---------------------------||
D||---------------------------|-3------3------------------||
A||--3-----3------------------|---------------3------3----||
E||--------------3-----3------|---------------------------||





E||--5-----5--5--3--3--3-h5---|-0-------------------------||
B||---------------------------|------------3---------1----||
G||---------------------------|---------------------------||
D||--3-----3------------------|---------------------------||
A||---------------------------|-0------0------------------||
E||--------------3-----3------|---------------3------3----||

E||-0-----X---0---------------|-------------------------3-||
B||-------X------------1------|--3------1-----------------||
G||-------X----------2--------|-----------------------0---||
D||-3-----X---3---------------|---------------------2-----||
A||-------X-------------------|---------3-----------------||
E||-------X-------------------|--3-3----------------------||

Refrain
E||-s8--8---------------------|-----------------3--3--3---||
B||--------8--8--6--6--5------|---------------------------||
G||---------------------------|---------------------------||
D||---------------------------|---------------------------||
A||--8--8--8--8--8--8--8--8---|--3--3--3--3--3--3--3--3---||
E||---------------------------|---------------------------||

E||-s8--8---------------------|-----------------3--3--3---||
B||--------8--8--6-----5------|--3------------------------||
G||---------------------------|---------------------------||
D||---------------------------|---------------------------||
A||--0--0--0--0--0--0--0--0---|---------------------------||
E||---------------------------|--3--3--3--3--3--3--3--3---||

E||-s8--8---------------------|---------------------------||
B||--------8--8--6--6--5------|--------------------1------||
G||---------------------------|---------------------------||
D||---------------------------|---------------------------||
A||--8--8--8--8--8--8--8--8---|--3--3--3--3--2--2--2--2---||
E||---------------------------|---------------------------||

E||-0----X--0-----------------|---------------------------||
B||------X---------1----------|-3------1------------------||
G||------X--------------------|---------------------------||
D||------X--------------------|---------------------------||
A||-0----X--0-----------------|---------------------------||
E||------X--------------------|--------------------3s8s3--||

Chorus
E||---0---X----0---0-------0-3|-0-------------0---X----0--||
B||-3-----X--3-----------3----|-------------3-----X--3----||
G||-------X-------------------|---------0---------X-------||
D||-------X--3---3---3--------|-------2-----------X--3---3||
A||-3-----X-------------------|-3---3-------3-----X-------||
E||-------X--------------3-3--|-------------------X-------||





E||-0-----------X--0----------|---0---X----0---0-------0--||
B||-------3-----X-------------|-3-----X--3-----------3----||
G||-------------X----------0--|-------X-------------------||
D||---3---------X--------2----|-------X--3---3---3--------||
A||-------------X--3---3------|-3-----X-------------------||
E||-------3-3---X-------------|-------X--------------3-3--||

E||3-0----------0---X--0------|-------X------------||
B||-----------------X-------1-|--3----X--1---------||
G||----------0------X-----0---|-------X----------0-||
D||--------2--------X---------|-------X--------2---||
A||--3---3------0---X--0------|--3-3--X--3---3-----||
E||-----------------X---------|-------X------------||

E||---0---X----0---0-------0-3|-0-------------0---X----0--||
B||-3-----X--3-----------3----|-------------3-----X--3----||
G||-------X-------------------|---------0---------X-------||
D||-------X--3---3---3--------|-------2-----------X--3---3||
A||-3-----X-------------------|-3---3-------3-----X-------||
E||-------X--------------3-3--|-------------------X-------||

E||-0-----------X--0----------|---0---X----0---0-------0--||
B||-------3-----X-------------|-3-----X--3-----------3----||
G||-------------X----------0--|-------X-------------------||
D||---3---------X--------2----|-------X--3---3---3--------||
A||-------------X--3---3------|-3-----X-------------------||
E||-------3-3---X-------------|-------X--------------3-3--||

E||3-0----------0---X--0------|-------X--------------0---X||
B||-----------------X-------1-|--3----X--1---------------X||
G||----------0------X-----0---|-------X----------0-------X||
D||--------2--------X---------|-------X--------2---------X||
A||--3---3------0---X--0------|--3-3--X--3---3-------0---X||
E||-----------------X---------|-------X------------------X||

E||--0-------------X----------||
B||-------1--------X--3--1----||
G||-----0----------X----------||
D||----------------X----------||
A||--0-------------X-----3----||
E||----------------X--3-------||



Bridge
E||----1-----0----------------|-------------------1------0||
B||1-3------------3-p1-----1--|---------------1-3---------||
G||---------------------------|---------------------------||
D||------3--------------------|---------------------------||
A||---------------------------|-3---0-3-------------0-----||
E||---------------------------|---3-----------------------||




E||---------------------------|-------1-----0-------------||
B||----3-p1-----0-------------|---1-3------------3-p1-----||
G||-----------------------0---|---------------------------||
D||---------------------0-----|---------3-----------------||
A||-------------------2-------|---------------------------||
E||-----------------3---------|---------------------------||

E||--------------------0----0-|---------------------------||
B||1--------------------------|--1--------3-----1---------||
G||---------------------------|---------------------------||
D||---------------------------|---------------------------||
A||----3---0-3-----0-3--------|---------------------------||
E||------3-------3------------|---------------------------||

E||---0--------0---0-------0-3|-0-------------0--------0--||
B||-3--------3-----------3----|-------------3--------3----||
G||---------------------------|---------------------------||
D||---------------------------|---------------------------||
A||---------------------------|---------------------------||
E||---------------------------|---------------------------||

E||-0-------------------------||
B||----3---------1------------||
G||---------------------------||
D||---------------------------||
A||---------------------------||
E||-------------------3s8s3---||

Chorus
E||---0---X----0---0-------0-3|-0-------------0---X----0--||
B||-3-----X--3-----------3----|-------------3-----X--3----||
G||-------X-------------------|---------0---------X-------||
D||-------X--3---3---3--------|-------2-----------X--3---3||
A||-3-----X-------------------|-3---3-------3-----X-------||
E||-------X--------------3-3--|-------------------X-------||





E||-0-----------X--0----------|---0---X----0---0-------0--||
B||-------3-----X-------------|-3-----X--3-----------3----||
G||-------------X----------0--|-------X-------------------||
D||---3---------X--------2----|-------X--3---3---3--------||
A||-------------X--3---3------|-3-----X-------------------||
E||-------3-3---X-------------|-------X--------------3-3--||

E||3-0----------0---X--0------|-------X------------||
B||-----------------X-------1-|--3----X--1---------||
G||----------0------X-----0---|-------X----------0-||
D||--------2--------X---------|-------X--------2---||
A||--3---3------0---X--0------|--3-3--X--3---3-----||
E||-----------------X---------|-------X------------||


E||---0---X----0---0-------0-3|-0-------------0---X----0--||
B||-3-----X--3-----------3----|-------------3-----X--3----||
G||-------X-------------------|---------0---------X-------||
D||-------X--3---3---3--------|-------2-----------X--3---3||
A||-3-----X-------------------|-3---3-------3-----X-------||
E||-------X--------------3-3--|-------------------X-------||

E||-0-----------X--0----------|---0---X----0---0-------0--||
B||-------3-----X-------------|-3-----X--3-----------3----||
G||-------------X----------0--|-------X-------------------||
D||---3---------X--------2----|-------X--3---3---3--------||
A||-------------X--3---3------|-3-----X-------------------||
E||-------3-3---X-------------|-------X--------------3-3--||

E||3-0----------0---X--0------|-------X--------------0---X||
B||-----------------X-------1-|--3----X--1---------------X||
G||----------0------X-----0---|-------X----------0-------X||
D||--------2--------X---------|-------X--------2---------X||
A||--3---3------0---X--0------|--3-3--X--3---3-------0---X||
E||-----------------X---------|-------X------------------X||

E||--0-------------X----------||
B||-------1--------X--3--1----||
G||-----0----------X----------||
D||----------------X----------||
A||--0-------------X-----3----||
E||----------------X--3-------||
Tap to rate this tab
# A B C D E F G H I J K L M N O P Q R S T U V W X Y Z