Song name
# A B C D E F G H I J K L M N O P Q R S T U V W X Y Z

One Direction - Kiss You tab

e|-----------------------------------------|
B|-----------------------------------------|
G|-----------------------------------------|
D|---2-2-2---------------------------------| Repeat x2
A|---------4-2-4---------------------------|
E|----------------0-0----------------------|

e|-----------------------------------------|
B|-----------------------------------------|
G|-----------------------------------------|
D|-----------------------------------------| Repeat x2
A|--4-4-4-2---2-4-4------------------------|
E|----------4------------------------------|

This is the part where they sing: Na na na na na na na na. 
thanks for watching,follow me on twitter https://twitter.com/LoveYouBella143 
Tap to rate this tab
# A B C D E F G H I J K L M N O P Q R S T U V W X Y Z