Song name
# A B C D E F G H I J K L M N O P Q R S T U V W X Y Z

One Direction - Change My Mind tab

e|--------------------------------------------------------------------------|
B|--------------------------------------------------------------------------|
G|--------------------------------------------------------------------------|
D|--------------------------------------------------------------------------|
A|---9-----12--9-----2------2-------9---12--9----2---2---2-----9---12-9---2-|
E|--10---------------3------3------10------------3---3---3-----10---------3-|

e|-----------------------------------------|
B|-----------------------------------------|
G|-----------------------------------------|
D|-----------------------------------------| x5
A|--9--9--9--9---2-2-2-2-------------------|
E|-10-10-10-10---3-3-3-3-------------------|
Tap to rate this tab
 
# A B C D E F G H I J K L M N O P Q R S T U V W X Y Z