Song name
# A B C D E F G H I J K L M N O P Q R S T U V W X Y Z

One Direction - Truly Madly Deeply tab

e|------------------------------------------------|
B|----8--8----8--8---8--8---8--8------------------|
G|----9--9----9--9---9--9---9--9------------------|
D|-10--10---9--9---7--7---9--9--------------------| Repeat x3
A|------------------------------------------------|
E|------------------------------------------------| 

e|------------------------------------------------|
B|------------------------------------------------|
G|------9---9---9---9----9---9--------------------|
D|-----10--10--10--10---10--10--------------------| Repeat x2
A|---8---8----7---7---5----5----------------------|
E|------------------------------------------------|
Tap to rate this tab
# A B C D E F G H I J K L M N O P Q R S T U V W X Y Z