Song name
# A B C D E F G H I J K L M N O P Q R S T U V W X Y Z

One Direction - Truly Madly Deeply tab

e|-----------------------------------------------------------|
B|-----------------------------------------------------------|
G|------0---------0---------0----------0---------------------|
D|----2---2-----2---2-----2---2------2---2-------------------| x2
A|--3---------2---------0----------2-------------------------|
E|-----------------------------------------------------------|


e|------------------------------------------------------|
B|-------1---------1--------1--------1------------------|
G|----2-----2----0---0----0---0----0---0----------------|
D|--3----------2--------0--------2----------------------|
A|------------------------------------------------------|
E|------------------------------------------------------|


e|--------------------------------------1--0------------|
B|-------1---------1--------1--------0------------------|
G|----2-----2----0---0----0---0----0--------------------|
D|--3----------2--------0-------------------------------|
A|------------------------------------------------------|
E|------------------------------------------------------|


This part is where Liam and Zayn sings.
Hope you like, I leave a video to see how it goes, if you want a tutorial just ask.
http://www.youtube.com/watch?v=qGFr_AdxpSk&feature=youtu.be
Tap to rate this tab
# A B C D E F G H I J K L M N O P Q R S T U V W X Y Z