Song name
# A B C D E F G H I J K L M N O P Q R S T U V W X Y Z

One Direction - Shes Not Afraid tab

 e|----------------------------------------------------------|
 b|----------------------------------------------------------|
 G|----------------------------------------------------------| 
 D|-8-x-8-x-8--6-6-6-x-x-6-x-6-x-6--8-8-8--x-x---------------| Repeat x 6 
 A|-6-x-6-x-6--4-4-4-x-x-4-x-4-x-4--6-6-6--x-x---------------|
 E|----------------------------------------------------------|

After you finish those 6 sometimes use these chords (play them only once)

 e|---6----|
 b|---8----|
 G|---8----|
 D|---8----|
 A|---6----|
 E|--------|

 e|--4-----|
 b|--5-----|
 G|--6-----|
 D|--6-----|
 A|--4-----|
 E|--------|                                                                
and end with this
 e|-----------------|
 b|-----------------|
 G|-----------------|
 D|-66666666/0------|
 A|-44444444/0------|
 E|-----------------|

Thanks for watching!
Tap to rate this tab
 
# A B C D E F G H I J K L M N O P Q R S T U V W X Y Z