Song name
# A B C D E F G H I J K L M N O P Q R S T U V W X Y Z

One Direction - Over Again tab

this isn't right, but it sounds ok...comment suggestions...



E|---------------2------------3------------------------3----|
B|--------3------3------------3--------3---------------3----|
G|--------4-----------4----------------4------------4-------|
D|----4------4----------4-----------5------------5----------|
A|--2-------------------------------------------------------|
E|-------------------------------3------------3-------------|

  ----------------------------------------------------------|
  ---7---------7-------7------------------------------------|
  ---7---------7-------7-------------------5------5---------|
  ----------7-----7-------7----------------6------6---------|
  -------5-------------------5---------7-------7------------|
  ---------------------------------5------------------------|

the chords throughout the song are Bm G D A ...if you can play those 4 chords, this 
should be easy.
Tap to rate this tab
 
# A B C D E F G H I J K L M N O P Q R S T U V W X Y Z