Song name
# A B C D E F G H I J K L M N O P Q R S T U V W X Y Z

One Direction - Live While Were Young tab

e 10--10--10--14--14--10| 9--9--9--12-12--9| 7--7--7-12-12--7|
b 10--10--10--10--10--10| 10-10-10-10-10-10| 7--7--7--7--7--7|
g 11--11--11--11--11--11| 9--9--9---9--9--9| 7--7--7--7--7--7|
D ----------------------|------------------|-----------------|
A ----------------------|------------------|-----------------|
E ----------------------|------------------|-----------------|

e 7--7--7--7-|
b 8--8--8--8-|
g 7--7--7--7-|
D -----------|
A -----------|
E -----------|
Tap to rate this tab
# A B C D E F G H I J K L M N O P Q R S T U V W X Y Z