Song name
# A B C D E F G H I J K L M N O P Q R S T U V W X Y Z

One Direction - Summer Love tab

Capo 2

If you can stretch your fingers, that's great. If you can't, playing this tab can cause buzzing.
The intro and the verses should be accurate if you play them along with the song. After watching
a video of them performing Summer Love, I found out they play it with two guitars. Sorry if you
don't think the prechorus isn't accurate. You can still sing along to the prechorus. One guitar
plays the intro and verses while the second joins in for a couple parts.

Intro and verses (So, you should play this x4. The singing starts after the 2nd time you play it
& 1 guitar only or 2 if you want, but it will be hard to be in sync)

E|-----------------------0-----------------------0-----------------------0--------------3--0-----|
B|-----------3--------3--------------3--------3--------------3--------3--------------3--------3--|
G|-----2-----------2-----------2-----------2-----------2-----------2-----------2-----------------|
D|--0-----0-----0--------------------------------------------------------------------------------|
A|--------------------------4-----4-----4-----------2-----2-----2--------------------------------|
E|--------------------------------------------------------------------------3-----3--------------|

   Can't believe you're      packin' your bags,       trying so hard not to cry,
   had the best time and now it's the worst time, but we have to say goodbye,


Prechorus:


Guitar 1 (chords):

  A                                   Em
Don't promise that you're gonna write, don't promise that you'll call,
  A                                   Em         (G)
Just promise that you won't forget we had it all,


Guitar 2 (tab):

E|-----------------------------------------------------------|
B|-----------------------------------------------------------|
G|-----------------------------------------------------------|
D|--------------------0--2---2--0----------------------------|
A|-----4-----4-----4---------------4-------2-----2-----2--2--|
E|--5-----5-----5-----------------------3-----3-----3--------|

    Don't promise that you're gonna write, don't promise that you'll call,

E|-----------------------------------------------------------|
B|-----------------------------------------------------------|
G|-----------------------------------------------------------|
D|--------------------0--2---2--0-------------------------0--|
A|-----4-----4-----4---------------4-------2-----2-----2-----|
E|--5-----5-----5-----------------------3-----3-----3--------|


    Just promise that you won't forget, we had it all,


Chorus:

Now, I know the D chord is xxx232, but for this tab it's 000232.
Guitar 1 plays the tab part while guitar 2 just strums the chords. The strumming of the 
chorus starts at 'mine'.

Guitar 1:

    D              Am             C              G

E|--2-----2--------0-----0--------0-----0--------3-----3--------|
B|--3--3-----3-----1--1-----1-----1--1-----1-----3--3-----3-----|
G|--2-----------2--2-----------2--0-----------0--0-----------0--|
D|--0--------------2--------------2--------------0--------------|
A|--0--------------0--------------3--------------2--------------|
E|--0--------------0--------------x--------------3--------------|

Guitar 2:

                 D              Am          C              G
'Cause you were mine for the summer, now we know it's nearly over,
            D           Am            C           G
Feels like snow in September, but I always will remember,
          D   Am   C          G                    D    Am   C       G [mute]
you were my-y-y-y summer love, you always will be my-y-y-y summer love,


Verses (only play x2 & guitar 1):

E|-----------------------0-----------------------0-----------------------0--------------3--0-----|
B|-----------3--------3--------------3--------3--------------3--------3--------------3--------3--|
G|-----2-----------2-----------2-----------2-----------2-----------2-----------2-----------------|
D|--0-----0-----0--------------------------------------------------------------------------------|
A|--------------------------4-----4-----4-----------2-----2-----2--------------------------------|
E|--------------------------------------------------------------------------3-----3--------------|

   Wish that we could     be alone now,      if we could find some place to hide,
   make the last time     just like the 1st time, push a button and rewind,


Prechorus ( guitars 1 & 2):


Prechorus:
Guitar 1 (chords):

  A                                   Em
Don't say a word that's on your lips, don't look at me that way,
  A                                   Em         (G)
Just promise you'll remember when the sky is grey,


Guitar 2 (tab):

E|-----------------------------------------------------------|
B|-----------------------------------------------------------|
G|-----------------------------------------------------------|
D|--------------------0--2---2--0----------------------------|
A|-----4-----4-----4---------------4-------2-----2-----2--2--|
E|--5-----5-----5-----------------------3-----3-----3--------|

    Don't say a word that's on your lips, don't look at me that way,

E|-----------------------------------------------------------|
B|-----------------------------------------------------------|
G|-----------------------------------------------------------|
D|--------------------0--2---2--0-------------------------0--|
A|-----4-----4-----4---------------4-------2-----2-----2-----|
E|--5-----5-----5-----------------------3-----3-----3--------|


    Just promise you'll remember when the sky is grey,


Chorus:
Guitar 1:

    D              Am             C              G

E|--2-----2--------0-----0--------0-----0--------3-----3--------|
B|--3--3-----3-----1--1-----1-----1--1-----1-----3--3-----3-----|
G|--2-----------2--2-----------2--0-----------0--0-----------0--|
D|--0--------------2--------------2--------------0--------------|
A|--0--------------0--------------3--------------2--------------|
E|--0--------------0--------------x--------------3--------------|


Guitar 2:

                 D              Am          C              G
'Cause you were mine for the summer, now we know it's nearly over,
            D           Am            C           G
Feels like snow in September, but I always will remember,
          D   Am   C          G                    D    Am   C       G [mute]
you were my-y-y-y summer love, you always will be my-y-y-y summer love,


Bridge:
Guitar 1:


   E|-----------------------------------------------|
   B|-----------------------------------------------|
   G|-----------------------------------------------|
   D|---------0----2----2---0------------------0----|
   A|----4----------------------4----2----4---------|
   E|-----------------------------------------------|

So please don't take this any harder we can't

E|---------------------------------------------------------------|
B|---------------------------------------------------------------|
G|---------------------------------------------------------------|
D|--------------0---------0----2----2---0-------------------0----|
A|----2----4---------4-----------------------4----2----4---------|
E|---------------------------------------------------------------|

   take this any farther and I know there's nothing that I wanna change,

Guitar 2:

           A
So please don't take this any harder
    Em
we can't take this any farther
    A                                    Em   (G)
and I know there's nothing that I wanna change,


Chorus:
"*" means strum once.(There's no need for the chorus tab here)
Guitar 1 or 2:

                 D*             A*          C*             G*
'Cause you were mine for the summer, now we know it's nearly over,
            D*          Am*           C*          G*
Feels like snow in September, but I always will remember,
          D   Am   C          G                    D    Am   C       G [mute]
you were my-y-y-y summer love, you always will be my-y-y-y summer love,
Tap to rate this tab
# A B C D E F G H I J K L M N O P Q R S T U V W X Y Z