Song name
# A B C D E F G H I J K L M N O P Q R S T U V W X Y Z

One Direction - Happily tab

-----------------------------------------------------------------------------
                             Happily  One Direction
-----------------------------------------------------------------------------
Tabbed by:Barney Stinson
E-mail:robinbbigge135@gmail.com

Second tab or so any help or amendments are greatly encouraged!


Tuning:Standard

Intro/Verse

e|--------------------------------------------------------------------------|
B|--------------------------------------------------------------------------|
G|--------------------------------------------------------------------------|
D|-------2-------2-----2-----3-----2-----2-----2--------2-------------------|
A|----3-------3-----3-----5-----0-----0-----0--------0----------------------|
E|--------------------------------------------------------------------------|

                                        OR

e|--------------------------------------------------------------------------|
B|--------------------------------------------------------------------------|
G|--------------------------------------------------------------------------|
D|--------------------------------------------------------------------------|
A|--------4------4-----4------5-------4-----4-----4-------4-----------------|
E|-----5------5-----5------7-------2-----2-----2-------2--------------------|

Depending on your preference

Repeat above through verse


CHOROUS

         Fm                               D
I don't care what people say when we're together

             A                                      E
You know I wanna be the one who hold you when you sleep

        Fm                        D
I just want it to be you and I forever

             A                                          E
I know you wanna leave so come on baby be with me so happily





Thanks!
Tap to rate this tab
# A B C D E F G H I J K L M N O P Q R S T U V W X Y Z