Song name
# A B C D E F G H I J K L M N O P Q R S T U V W X Y Z

One Direction - Midnight Memories tab

This is the riff in the verses.

e|----------------------------------------------------------|
B|-----------------------5----------------------------------|
G|-------------2---2--6------6--4--2------------------------|
D|---2---4--6--------------------------6--4--2--2---2-------|
A|----------------------------------------------------------|
E|----------------------------------------------------------|



and the chorus

e|--------------------------------------|
B|--------------------------------------|
G|---------1--2--1----------------------|
D|---2--4-----------4--2-----2----------|
A|------------------------4-------------|
E|--------------------------------------|

1, 2, 3

[Harry]
E
 Straight off the plane to a new hotel

E   G#m   A   F#

E
 Just touched down, you could never tell

E   G#m   A   F#

E
 Big house party with a crowded kitchen

E   G#m   A   F#

E
 People talk shh but we don't listen

[Louis]
A
 Tell me that I'm wrong but I do what I please
F#m
 Way too many people in the Adison Lane
G#m                                              E
 Now I'm in the age when I know what I need, oh, whoa

[Chorus]
E         A   B
 Midnight memories, oh oh oh
E
 Baby you and me
A
 Stumbling in the street
B
 Singing, singing, singing, singing
E         A   B
 Midnight memories, oh oh oh
E               A
 Anywhere we go never say no
      B
 Just do it, do it, do it, do it

[Liam]
E
 5 foot something with the skinny jeans

E   G#m   A   F#

E
 Don't look back, baby follow me

E   G#m   A   F#

 [Niall]
E
 I don't know where I'm going but I'm finding my way

E   G#m   A   F#

E
 Same old shh but a different day

[Louis]
A
 Tell me that I'm wrong but I do what I please
F#m
 Way too many people in the Adison Lane
G#m                                              E
 Now I'm in the age when I know what I need, oh, whoa

[Chorus]
E         A   B
 Midnight memories, oh oh oh
E
 Baby you and me
A
 Stumbling in the street
B
 Singing, singing, singing, singing
E         A   B
 Midnight memories, oh oh oh
E               A
 Anywhere we go never say no
      B
 Just do it, do it, do it, do it

[Niall]
C#m
 You and me and all our friends
A
 I don't care how much we spend
E                               B
 Baby this is what the night is for, oh, oh
 [Harry]
C#m
 I know nothing's making sense
A
 For tonight let's just pretend
E                              B
 I don't wanna stop so give me more, ow

[Chorus]
E         A   B
 Midnight memories, oh oh oh
E
 Baby you and me
A
 Stumbling in the street
B
 Singing, singing, singing, singing
E         A   B
 Midnight memories, oh oh oh
E               A
 Anywhere we go never say no
      B
 Just do it, do it, do it, do it
Tap to rate this tab
 
# A B C D E F G H I J K L M N O P Q R S T U V W X Y Z