Song name
# A B C D E F G H I J K L M N O P Q R S T U V W X Y Z

One Direction - Half A Heart tab

Tabbed by:missbananadog
E-mail:acarter98@nycap.rr.com

Tuning:EADGBe

 *strum once

       
   Intro: C x2            Verse: C x2                        Em x2
e|---5-------------5---------------5--------------5-------------------------|
B|---1-------------1---------------1--------------1--------------0----------|
G|------0-0-------------0-0------------0-0------------0-0--------0----------|
D|--2----2------2--------2------2-------2------2-------2-------2---2-2------|
A|-3----------3---------------3--------------3----------------2-----2-------|
E|--------------------------------------------------------------------------|
             Am x2                   F x2            (verse x2)
e|--------------------------------------------------------------------------|
B|----0----------1-----------1-----------1---------1------------------------|
G|----0----------2-----------2-----------2---------2------------------------|
D|--2---2-2----2----2-2----2----2-2----3---3-3---3---3-3--------------------|
A|-2-----2----0------0----0------0----3-----3---3-----3---------------------|
E|--------------------------------------------------------------------------|

  Pre-Chorus: Am x2         G x2
e|-----------------------------3--------3-----------------------------------|
B|------1----------1-----------3--------3-----------------------------------|
G|------2----------2----------0--0-0---0---0-0------------------------------|
D|----2---2-2----2----2-2---------0---------0-------------------------------|
A|---0-----2----0------2----------------------------------------------------|
E|--------------------------3---------3-------------------------------------|


   Chorus: C x2                      Em x2            Am x2
e|---5-------------5--------------------------------------------------------|
B|---1-------------1-------------0---------0---------1-----------1----------|
G|------0-0-------------0-0------0---------0---------2-----------2----------|
D|--2----2------2--------2------2---2-2---2--2-2----2---2-2-----2---2-2-----|
A|-3----------3---------------2------2---2----2----0-----0----0------0------|
E|--------------------------------------------------------------------------|
     F x2            
e|-----------------------------------|
B|----1--------1---------------------|
G|----2--------2---------------------|        Repeat Chorus twice
D|---3--3-3---3---3-3----------------|
A|--3----3---3-----3-----------------|
E|-----------------------------------|


  Interlude: C x2       Verse: C x2                        Em x2
e|---5-------------5---------------5--------------5-------------------------|
B|---1-------------1---------------1--------------1--------------0----------|
G|------0-0-------------0-0------------0-0------------0-0--------0----------|
D|--2----2------2--------2------2-------2------2-------2-------2---2-2------|
A|-3----------3---------------3--------------3----------------2-----2-------|
E|--------------------------------------------------------------------------|
             Am x2                   F x2            (verse x2)
e|--------------------------------------------------------------------------|
B|----0----------1-----------1-----------1---------1------------------------|
G|----0----------2-----------2-----------2---------2------------------------|
D|--2---2-2----2----2-2----2----2-2----3---3-3---3---3-3--------------------|
A|-2-----2----0------0----0------0----3-----3---3-----3---------------------|
E|--------------------------------------------------------------------------|


  Pre-Chorus: Am x2         G x2
e|-----------------------------3--------3-----------------------------------|
B|------1----------1-----------3--------3-----------------------------------|
G|------2----------2----------0--0-0---0---0-0------------------------------|
D|----2---2-2----2----2-2---------0---------0-------------------------------|
A|---0-----2----0------2----------------------------------------------------|
E|--------------------------3---------3-------------------------------------|


    Chorus: C x2                      Em x2            Am x2
e|---5-------------5--------------------------------------------------------|
B|---1-------------1-------------0---------0---------1-----------1----------|
G|------0-0-------------0-0------0---------0---------2-----------2----------|
D|--2----2------2--------2------2---2-2---2--2-2----2---2-2-----2---2-2-----|
A|-3----------3---------------2------2---2----2----0-----0----0------0------|
E|--------------------------------------------------------------------------|
     F x2            
e|-----------------------------------|
B|----1--------1---------------------|
G|----2--------2---------------------|        Repeat Chorus 3 times
D|---3--3-3---3---3-3----------------|
A|--3----3---3-----3-----------------|
E|-----------------------------------|

 Bridge:(strummed) G*   Am*   F*   C*   G*   Am*  F (strum repeatedly)
e|-----------------3-----0----1----5----3----0----1-------------------------|
B|-----------------3-----1----1----1----3----1----1-------------------------|
G|-----------------0-----2----2----0----0----2----2-------------------------|
D|-----------------0-----2----3----2----0----2----3-------------------------|
A|-----------------2-----0----3----3----2----0----3-------------------------|
E|-----------------3-----0----0----0----3----0----0-------------------------|


    Chorus: C x2                      Em x2            Am x2
e|---5-------------5--------------------------------------------------------|
B|---1-------------1-------------0---------0---------1-----------1----------|
G|------0-0-------------0-0------0---------0---------2-----------2----------|
D|--2----2------2--------2------2---2-2---2--2-2----2---2-2-----2---2-2-----|
A|-3----------3---------------2------2---2----2----0-----0----0------0------|
E|--------------------------------------------------------------------------|
     F x2            
e|-----------------------------------|
B|----1--------1---------------------|
G|----2--------2---------------------|        Repeat Chorus 3 times, strum
D|---3--3-3---3---3-3----------------|        last F and end on strummed C
A|--3----3---3-----3-----------------|
E|-----------------------------------|
Tap to rate this tab
# A B C D E F G H I J K L M N O P Q R S T U V W X Y Z