Song name
# A B C D E F G H I J K L M N O P Q R S T U V W X Y Z

One Direction - Midnight Memories tab

Drop D Tuning-From high to low (eBGDAD)

*These are the tabs for the song, not chords. Thats's why I don't have chords in the 
appropriate places. I only have them for some parts.


*h= hammer on next note
   ex. --2-h-3--  = hammer on 3

*s= slide onto next note
    ex. -------8-s-10  = slide from 8 to 10



Verse 1
The part after "Straight off the plane to a new hotel..."
E-------------------------------------------------------------------------|
B-------------------------------------------------------------------------|
G-------------------------------------------------------------------------|
D-------------0-----------------------------------------------------------|
A-------0-2-4---4-2-0-0---------------------------------------------------|
D-2-4-6-----------------6-4-2-2-------------------------------------------|


The part after "Just touched down, you could never tell."
E-------------------------------------------------------------------------|
B-------------------------------------------------------------------------|
G-------------------------------------------------------------------------|
D-------------0-----------------------------------------------------------|
A-------0-2-4---4-2-0-0---------------------------------------------------|
D-2-4-6-----------------0-1-2-2-------------------------------------------|


The part after "A big house party with a crowded kitchen..."
E-------------------------------------------------------------------------|
B-------------------------------------------------------------------------|
G-------------------------------------------------------------------------|
D-------------0-----------------------------------------------------------|
A-------0-2-4---4-2-0-0---------------------------------------------------|
D-2-4-6-----------------6-4-2-2-------------------------------------------|


Nothing during "People talk shh but we don't listen."


The chords during:

A
Tell me that I'm wrong but I do what I please
C
Way too many people in the ??? ???
D                                                           (stop strumming on the "Whoa")
Now I'm at the age when I know what I need oh whoa!




Chorus
The part after and during "Midnight memories, oh, oh, oh..."
E-------------------------------------------------------------------------|
B-------------------------------------------------------------------------|
G-------------------------------------------------------------------------|
D-----2-------------------------------------------------------------------|
A-2-4---4-2---------------------------------------------------------------|
D-----------6-4-2-2-------------------------------------------------------|


Nothing during "Baby you and me, stumbling in the street. Singing, singing, singing, singing."


The part after and during "Midnight memories, oh, oh, oh..."
E------------------------------------------------------------------------------|
B------------------------------------------------------------------------------|
G------------------------------------------------------------------------------|
D-----2------------------------------------------------------------------------|
A-2-4---4-2--------------------------------------------------------------------|
D-----------6-4-2-2------------------------------------------------------------|


Nothing during "Baby where we go, never say no just do it, do it, do it, do it."




Verse 2
The part after "5 foot something with the skinny jeans..."
E-------------------------------------------------------------------------|
B-------------------------------------------------------------------------|
G-------------------------------------------------------------------------|
D-------------0-----------------------------------------------------------|
A-------0-2-4---4-2-0-0---------------------------------------------------|
D-2-4-6-----------------6-4-2-2-------------------------------------------|


The part after "Don't look back baby follow me."
E-------------------------------------------------------------------------|
B-------------------------------------------------------------------------|
G-------------------------------------------------------------------------|
D-------------0-----------------------------------------------------------|
A-------0-2-4---4-2-0-0---------------------------------------------------|
D-2-4-6-----------------0-1-2-2-------------------------------------------|


The part after "I don't know where I'm going but I'm finding my way..."
E-------------------------------------------------------------------------|
B-------------------------------------------------------------------------|
G-------------------------------------------------------------------------|
D-------------0-----------------------------------------------------------|
A-------0-2-4---4-2-0-0---------------------------------------------------|
D-2-4-6-----------------6-4-2-2-------------------------------------------|


Also going on after "I don't know where I'm going but I'm finding my way..."

E----------------------------------------------------------------------------|
B-10-s-12-12---12-s-14-14---14-s-15-15-14-14---------------------------------|
G----------------------------------------------------------------------------|
D----------------------------------------------------------------------------|
A----------------------------------------------------------------------------|
D----------------------------------------------------------------------------|


Nothing during "Same old shh but a different day."



The chords during:

A
Tell me that I'm wrong but I do what I please
C
Way too many people in the ??? ???
D                                (stop strumming on the "Whoa")
Now I'm at the age when I know what I need oh whoa!




Chorus
The part after and during "Midnight memories, oh, oh, oh..."
E-------------------------------------------------------------------------|
B-------------------------------------------------------------------------|
G-------------------------------------------------------------------------|
D-----2-------------------------------------------------------------------|
A-2-4---4-2---------------------------------------------------------------|
D-----------6-4-2-2-------------------------------------------------------|


Nothing during "Baby you and me, stumbling in the street. Singing, singing, singing, singing."


The part after and during "Midnight memories, oh, oh, oh..."
E-------------------------------------------------------------------------|
B-------------------------------------------------------------------------|
G-------------------------------------------------------------------------|
D-----2-------------------------------------------------------------------|
A-2-4---4-2---------------------------------------------------------------|
D-----------6-4-2-2-------------------------------------------------------|


The part after "Baby where we go, never say no. Just do it, do it, do it, do it."
E---------------------------------------------------------------------------|
B---------------------------------------------------------------------------|
G---------------------------------------------------------------------------|
D-----2---------------------------------------------------------------------|
A-2-4---4-2-----1-h-4-------------------------------------------------------|
D-----------6-4-------------------------------------------------------------|




Bridge
The part during "You and me and all our friends..."
E----------------------------------------------------------------------------|
B----------------------------------------------------------------------------|
G----------------------------------------------------------------------------|
D----------------------------------------------------------------------------|
A-4-4-4-4-4-4-4-4-4-4-6-s-7--------------------------------------------------|
D----------------------------------------------------------------------------|


The part during "I don't care how much we spend..."
E----------------------------------------------------------------------------|
B----------------------------------------------------------------------------|
G----------------------------------------------------------------------------|
D----------------------------------------------------------------------------|
A-0-0-0-0-0-0-0-0-0-0-0-0-6-s-7----------------------------------------------|
D----------------------------------------------------------------------------|


The part during "Baby, this is what the night is..."
E----------------------------------------------------------------------------|
B----------------------------------------------------------------------------|
G----------------------------------------------------------------------------|
D----------------------------------------------------------------------------|
A--------------------------6-s-7---------------------------------------------|
D-2-2-2-2-2-2-2-2-2-2-2-2----------------------------------------------------|



The part during "For, oh, oh, oh."
E------------------------------------------------------------------------------|
B------------------------------------------------------------------------------|
G------------------------------------------------------------------------------|
D------------------------------------------------------------------------------|
A-2-2-2-2-2-2-2-2-2-2-2-2------------------------------------------------------|
D--------------------------6-6-6-----------------------------------------------|



The part during "I know nothing's making sense..."
E-----------------------------------------------------------------------------|
B-----------------------------------------------------------------------------|
G-----------------------------------------------------------------------------|
D-----------------------------------------------------------------------------|
A-4-4-4-4-4-4-4-4-4-4-4-4-6-s-7-----------------------------------------------|
D-----------------------------------------------------------------------------|

The part during "For tonight let's just pretend..."
E----------------------------------------------------------------------------|
B----------------------------------------------------------------------------|
G----------------------------------------------------------------------------|
D----------------------------------------------------------------------------|
A-0-0-0-0-0-0-0-0-0-0-0-0-6-s-7----------------------------------------------|
D----------------------------------------------------------------------------|

The part during " I don't wanna stop so give me...."
E----------------------------------------------------------------------------|
B----------------------------------------------------------------------------|
G----------------------------------------------------------------------------|
D----------------------------------------------------------------------------|
A--------------------------6-s-7---------------------------------------------|
D-2-2-2-2-2-2-2-2-2-2-2-2----------------------------------------------------|

The part during "More, oh, oh, oh"
E---------------------------------------------------------------------------|
B---------------------------------------------------------------------------|
G-------------------------------------------1-1-1-1-2-2-2-2-4-4-4-4---------|
D------------------1-1-1-1-2-2-2-2-4-4-4-4----------------------------------|
A-2-2-2-2-4-4-4-4-----------------------------------------------------------|
D---------------------------------------------------------------------------|



Nothing here "Midnight memories, oh, oh, oh. Baby you and me, stumbling in the street. 
Singing, singing, singing, singing"


The part during "Midnight memories, oh, oh, oh anywhere....."
E------------------------------------------------------------------------------|
B------------------------------------------------------------------------------|
G------------------------------------------------------------------------------|
D-----2------------------------------------------------------------------------|
A-2-4---4-2--------------------------------------------------------------------|
D-----------6-4-2-2------------------------------------------------------------|


And end the song with two E chords.
Tap to rate this tab
# A B C D E F G H I J K L M N O P Q R S T U V W X Y Z