Song name
# A B C D E F G H I J K L M N O P Q R S T U V W X Y Z

One Direction - Summer Love tab

Capo on 3rd fret




Intro & verse 1

 e |-------------0--------------0-------------0----------2---------------|
 B |-------3---3--------3-----3--------3----3----------3---3-------------|
 G |---2-----2-------2------2-------2-----2----------2-------2-----------|
 D |-0--0--0---------------------------------------0---------------------|
 A |---------------4--4--4--------2--2--2--------------------------------|
 E |---------------------------------------------3-----------------------|




Pre-chorus
    A                Em                   A                       G
e |------------0------------------------------------0----0-------------------------------|
B |----2---3----2--------0----------0--------2--2----------------------2-------2------2--|
G |---2-2---2----2-----0---0------0---0-----2----------2----2--------0-0-----0-0---0-0---|
D |--2---2---2--------2-------2--2---------2---2--------2----2-----0-------0------0------|
A |-0-------------------------------------0----------------------------------------------|
E |------------------0----------0---------------------------------3-------3-----3--------|





Chorus  (last time end with only strumming G chord softly)
     D                   Am                    C                  G
e |--2-------2p0---------0---------------------0------------------2----------------|
B |--3-------------3-----1------1--------------1----1-------------2------2---------|
G |--2----2----------2---2----2----2----2------0---0---0----0-----0----0----0---0--|
D |--0-------------------2---------------------2------------------0-----------0----|
A |--0-------------------0------------0--------3---------3--------2----------------|
E |---------------------------------------------------------------3----------------|



Intro&verse x4
Pre-chorus x1
Chorus x4
(Intro)&verse x2
Pre-chorus x1
Chorus x4
Bridge (same as pre-chorus) x1
Chorus
Tap to rate this tab
 
# A B C D E F G H I J K L M N O P Q R S T U V W X Y Z