Song name
# A B C D E F G H I J K L M N O P Q R S T U V W X Y Z

One Direction - Midnight Memories tab

Here's the link to the video and lesson:
https://www.youtube.com/watch?v=jwrQ_piiHvo

Legend
********************************************
v |Upstroke
()|Optional notes

********************************************
Guitar 1: Standard Tuning (E,A,D,G,B,e)
Guitar 2: Standard Tuning (E,A,D,G,B,e)

Verse1:
e|------------------------------|
B|------------------------------|
G|-11xx-x-x-xx------------------|
D|-22xx-x-x-xx---------0--------| X3
A|-22xx-x-x-xx-----0-24--420-0--|
E|-00xx-x-x-xx-0-24-----------42|

e|---------------|
B|---------------|
G|-11xx-x-x-xxxx-|
D|-22xx-x-x-xxxx-|
A|-22xx-x-x-xxxx-|
E|-00xx-x-x-xxxx-|

Pre-Chorus:
e|----------------------|
B|----------------------|
G|----------------------|
D|--7-----10-----12-----|
A|--7-x16-10-x16-12-x16-|
E|--5-----8------10-----|

Chorus:
Guitar 1                             v   v
e|---------------------------------------------------------------|
B|-----22-------------------22-------------------22--------------|
G|-11--22--44----------11---22--44--(4)-(4)-11---22--44----------|
D|-22--22--44-----2----22---22--44--(4)-(4)-22---22--44-----2----|
A|-22--00--22---24-42--22---00--22--(2)-(2)-22---00--22---24-42--|
E|-00----------------4200-24----------------00-24--------------42|

              v v v v
e|--------------------|
B|------22------------|
G|-11---22----4-4-4-4-|
D|-22---22----4-4-4-4-|
A|-22---00-24-2-2-2-2-|
E|-00-24--------------|

Guitar 2 “anywhere we go:
e|-------|
B|-17-17-|
G|-16-16-|
D|-------|
A|-------|
E|-------|

Verse 2:
Guitar1
e|------------------------------|
B|------------------------------|
G|-11xx-x-x-xx------------------|
D|-22xx-x-x-xx---------0--------| X3
A|-22xx-x-x-xx-----0-24--420-0--|
E|-00xx-x-x-xx-0-24-----------42|

Guitar2 First two times:
e|--------------------|
B|---------7----------|
G|-----6-79--976-6----|
D|-6-79-----------97--|
A|--------------------|
E|--------------------|

Then 3rd time play this:
e|-------------|
B|-12-14-15-14-|
G|-11-13-14-13-|
D|-------------|
A|-------------|
E|-------------|

Guitar 1 “Same Old”: 
e|----|
B|----|
G|-11-|
D|-22-|
A|-22-|
E|-00-|

Pre-Chorus:
e|----------------------|
B|----------------------|
G|----------------------|
D|--7-----10-----12-----|
A|--7-x16-10-x16-12-x16-|
E|--5-----8------10-----|

Chorus:
Guitar 1                             v   v
e|---------------------------------------------------------------|
B|-----22-------------------22-------------------22--------------|
G|-11--22--44----------11---22--44--(4)-(4)-11---22--44----------|
D|-22--22--44-----2----22---22--44--(4)-(4)-22---22--44-----2----|
A|-22--00--22---24-42--22---00--22--(2)-(2)-22---00--22---24-42--|
E|-00----------------4200-24----------------00-24--------------42|
              v v 
e|------------------------|
B|------22----------------|
G|-11---22----4-4---------|
D|-22---22----4-4---2-----|
A|-22---00-24-2-2-24-420--|
E|-00-24----------------4-|

Guitar 2 “anywhere we go:
e|-------|
B|-17-17-|
G|-16-16-|
D|-------|
A|-------|
E|-------|

Bridge:
e|------------------------------------------|
B|------------------------------------------|
G|-6-------------------9---------4----------|
D|-6-x11-----7---------9-x11-----4-x11-4-2--|
A|-4-----467-7-x11-----7---------2------4---|
E|-----------5-----579-------024------------|

e|--------------------------------------------------------------------------|
B|--------------------------------------------------------------------------|
G|-6-------------------9---------4----6----8----9----11----13----14----16---|
D|-6-x11-----7---------9-x11-----4-x4-6-x4-8-x4-9-x4-11-x4-13-x4-14-x4-16-x4|
A|-4-----467-7-x11-----7---------2----4----6----7----9-----11----12----14---|
E|-----------5-----579-------024--------------------------------------------|

Chorus “Baby you and me”:
Guitar1          v   v
e|-------------------------------------------|
B|------22-------------------22--------------|
G|-11---22--44--(4)-(4)-11---22--44----------|
D|-22---22--44--(4)-(4)-22---22--44-----2----|
A|-22---00--22--(2)-(2)-22---00--22---24-42--|
E|-00-24----------------00-24--------------42|

              v v v v
e|-----------------------|
B|------22------------11-|
G|-11---22----4-4-4-4-22-|
D|-22---22----4-4-4-4-22-|
A|-22---00-24-2-2-2-2-00-|
E|-00-24-----------------|

Guitar 2 “anywhere we go:
e|-------|
B|-17-17-|
G|-16-16-|
D|-------|
A|-------|
E|-------|
Tap to rate this tab
# A B C D E F G H I J K L M N O P Q R S T U V W X Y Z