Song name
# A B C D E F G H I J K L M N O P Q R S T U V W X Y Z

One Direction - You And I tab

One Direction  You & I (TAB with Strumming Pattern, CHORDS)

+ Capo: 1st fret

^ = Strumming From The BOTTOM


Intro: x2
   F     G     a               C             F
e|-1-----3---3-0-------0-----0-0------0----0-1------1----1-|
H|-1---1-3-3-3-1----1--1---1-1-1---1--1--1-1-1---1--1--1-1-|
G|-2---2-0-0-0-2----2--2---2-2-0---0--0--0-0-2---2--2--2-2-|
D|-3---3-0-0-0-2----2--2---2-2-2---2--2--2-2-3---3--3--3-3-|
A|-3---3-2-2-2-0----0--0---0-0-3---3--3--3-3-3---3--3--3-3-|
E|-1---1-3-3-3-------------------------------1---1--1--1-1-|
         ^   ^               ^             ^             ^

Verse:
   G                                            D/F#
e|-3-----3-----3-----3----3-3-----3----3-3----3-2----2-|
H|-3-----3-----3--3--3--3-3-3--3--3--3-3-3--3-3-3--3-3-|
G|-0-----0-----0--0--0--0-0-0--0--0--0-0-0--0-0-2--2-2-|
D|-0-----0-----0--0--0--0-0-0--0--0--0-0-0--0-0-0--0-0-|
A|-2-----2-----2--2--2--2-2-2--2--2--2-2-2--2-2-0--0-0-|
E|-3-----3-----3--3--3--3-3-3--3--3--3-3-3--3-3-2--2-2-|
                          ^            ^      ^      ^
   e                         C
e|-0-----0----0-0-----0----0-0-----0----0-0-----0----0-|
H|-0--0--0--0-0-0--0--0--0-0-1--1--1--1-1-1--1--1--1-1-|
G|-0--0--0--0-0-0--0--0--0-0-0--0--0--0-0-0--0--0--0-0-|
D|-2--2--2--2-2-2--2--2--2-2-2--2--2--2-2-2--2--2--2-2-|
A|-2--2--2--2-2-2--2--2--2-2-3--3--3--3-3-3--3--3--3-3-|
E|-0--0--0--0-0-0--0--0--0-0---------------------------|
              ^            ^            ^            ^

   G                                              D/F#
e|-3-----3----3-3-----3----3---3----3----3-3----3-2----2-|
H|-3--3--3--3-3-3--3--3--3-3-3-3-3--3--3-3-3--3-3-3--3-3-|
G|-0--0--0--0-0-0--0--0--0-0-0-0-0--0--0-0-0--0-0-2--2-2-|
D|-0--0--0--0-0-0--0--0--0-0-0-0-0--0--0-0-0--0-0-0--0-0-|
A|-2--2--2--2-2-2--2--2--2-2-2-2-2--2--2-2-2--2-2-0--0-0-|
E|-3--3--3--3-3-3--3--3--3-3-3-3-3--3--3-3-3--3-3-2--2-2-|
              ^            ^   ^         ^      ^      ^
   e                         C
e|-0-----0----0-0-----0----0-0-----0----0-0-----0----0-|
H|-0--0--0--0-0-0-(0)-0--0-0-1-----1--1-1-1-----1--1-1-|
G|-0--0--0--0-0-0-(0)-0--0-0-0-----0--0-0-0-----0--0-0-|
D|-2--2--2--2-2-2-(2)-2--2-2-2-----2--2-2-2-----2--2-2-|
A|-2--2--2--2-2-2-(2)-2--2-2-3-----3--3-3-3-----3--3-3-|
E|-0--0--0--0-0-0-(0)-0--0-0---------------------------|
              ^            ^            ^            ^

Pre-chorus:
   e         D/F# C           e          D/F# C
e|-0-----------2--0-----(0)---0------------2--0-----------|
H|-0-----------3--1-----(1)---0------------3--1-----------|
G|-0-----------2--0-----(0)---0------------2--0-----------|
D|-2-----(2-2)-0--2-----(2)---2----(2-2-2)-0--2-----------|
A|-2-----(2-2)-0--3-----(3)---2----(2-2-2)-0--3-----------|
E|-0-----(0-0)-2--------------0----(0-0-0)-2--------------|
          . .            ^          . . .


Chorus: x2

   F     G     a                C           F
e|-1-1---3---3-0---0---0-0----0-0----0----0-1----1-1----1-|
H|-1-1-1-3-3-3-1---1-1-1-1--1-1-1----1--1-1-1--1-1-1--1-1-|
G|-2-2-2-0-0-0-2---2-2-2-2--2-2-0----0--0-0-2--2-2-2--2-2-|
D|-3-3-3-0-0-0-2---2-2-2-2--2-2-2----2--2-2-3--3-3-3--3-3-|
A|-3-3-3-2-2-2-0---0-0-0-0--0-0-3----3--3-3-3--3-3-3--3-3-|
E|-1-1-1-3-3-3------------------------------1--1-1-1--1-1-|
     ^   ^   ^    (^)  ^      ^           ^      ^      ^

   e           F             G
e|-0----0----0-1----1-1----1-3----3-----3-3--|
H|-0----0--0-0-1--1-1-1--1-1-3--3-3-(3)-3-3--|
G|-0----0--0-0-2--2-2-2--2-2-0--0-0-(0)-0-0--|
D|-2----2--2-2-3--3-3-3--3-3-0--0-0-(0)-0-0--|
A|-2----2--2-2-3--3-3-3--3-3-2--2-2-(2)-2-2--|
E|-0----0--0-0-1--1-1-1--1-1-3--3-3-(3)-3-3--|
             ^      ^      ^      ^     ^

Post-chorus:
   F     G     a                C            F
e|-1-1---3---3-0---0---0-0----0-0-----0----0-1-----1----1-|
H|-1-1-1-3-3-3-1---1-1-1-1--1-1-1--1--1--1-1-1--1--1--1-1-|
G|-2-2-2-0-0-0-2---2-2-2-2--2-2-0--0--0--0-0-2--2--2--2-2-|
D|-3-3-3-0-0-0-2---2-2-2-2--2-2-2--2--2--2-2-3--3--3--3-3-|
A|-3-3-3-2-2-2-0---0-0-0-0--0-0-3--3--3--3-3-3--3--3--3-3-|
E|-1-1-1-3-3-3-------------------------------1--1--1--1-1-|
     ^   ^   ^    (^)  ^      ^            ^            ^

   F     G     a                C            F
e|-1-1---3---3-0---------0----0-0-----0----0-1-----1----1-|
H|-1-1-1-3-3-3-1------1--1--1-1-1--1--1--1-1-1--1--1--1-1-|
G|-2-2-2-0-0-0-2------2--2--2-2-0--0--0--0-0-2--2--2--2-2-|
D|-3-3-3-0-0-0-2------2--2--2-2-2--2--2--2-2-3--3--3--3-3-|
A|-3-3-3-2-2-2-0------0--0--0-0-3--3--3--3-3-3--3--3--3-3-|
E|-1-1-1-3-3-3-------------------------------1--1--1--1-1-|
     ^   ^   ^                ^            ^            ^

Verse: the same

Pre-Chorus: the same


Chorus:

   F     G     a                C           F
e|-1-1---3---3-0---0---0-0----0-0----0----0-1----1-1----1-|
H|-1-1-1-3-3-3-1---1-1-1-1--1-1-1----1--1-1-1--1-1-1--1-1-|
G|-2-2-2-0-0-0-2---2-2-2-2--2-2-0----0--0-0-2--2-2-2--2-2-|
D|-3-3-3-0-0-0-2---2-2-2-2--2-2-2----2--2-2-3--3-3-3--3-3-|
A|-3-3-3-2-2-2-0---0-0-0-0--0-0-3----3--3-3-3--3-3-3--3-3-|
E|-1-1-1-3-3-3------------------------------1--1-1-1--1-1-|
     ^   ^   ^    (^)  ^      ^           ^      ^      ^

   e           F             G
e|-0----0----0-1----1-1----1-3----3-----3-3--|
H|-0----0--0-0-1--1-1-1--1-1-3--3-3-(3)-3-3--|
G|-0----0--0-0-2--2-2-2--2-2-0--0-0-(0)-0-0--|
D|-2----2--2-2-3--3-3-3--3-3-0--0-0-(0)-0-0--|
A|-2----2--2-2-3--3-3-3--3-3-2--2-2-(2)-2-2--|
E|-0----0--0-0-1--1-1-1--1-1-3--3-3-(3)-3-3--|
             ^      ^      ^      ^     ^

   F     G     a                C           F
e|-1-1---3---3-0---0---0-0----0-0----0----0-1----1-1----1-|
H|-1-1-1-3-3-3-1---1-1-1-1--1-1-1----1--1-1-1--1-1-1--1-1-|
G|-2-2-2-0-0-0-2---2-2-2-2--2-2-0----0--0-0-2--2-2-2--2-2-|
D|-3-3-3-0-0-0-2---2-2-2-2--2-2-2----2--2-2-3--3-3-3--3-3-|
A|-3-3-3-2-2-2-0---0-0-0-0--0-0-3----3--3-3-3--3-3-3--3-3-|
E|-1-1-1-3-3-3------------------------------1--1-1-1--1-1-|
     ^   ^   ^    (^)  ^      ^           ^      ^      ^

   e           F
e|-0----0----0-1~~~~~-------------------------------------|
H|-0----0--0-0-1~~~~~-------------------------------------|
G|-0----0--0-0-2~~~~~-------------------------------------|
D|-2----2--2-2-3~~~~~-------------------------------------|
A|-2----2--2-2-3~~~~~-------------------------------------|
E|-0----0--0-0-1~~~~~-------------------------------------|
             ^


Solo:   F G a   C  F  e  F  G

Chorus: F G a   C  F  e  F  G  /x2

        F G a   C  F  /x2

End:    F G a   C  F  (to fade) (x3)


Enjoy! and have FUN playing this song (maybe with someone singing too) ;)

P.S: Strumming Pattern is NOT 100% Correct like in the Original Song, but it 
Sounds Really Good (and ALMOST 100% like in the Song)
Tap to rate this tab
# A B C D E F G H I J K L M N O P Q R S T U V W X Y Z