Song name
# A B C D E F G H I J K L M N O P Q R S T U V W X Y Z

One Direction - Back For You tab

-------------------------------------------------------------------------------
                             Back For You- One Direction
-------------------------------------------------------------------------------
Tabbed by: Jalen Chin
Standard Tuning
No capo


Intro: x1 
e|-----------------------------------------------------------------------------------|
B|-----------------------------------------------------------------------------------|
G|-----------------------------------------------------------------------------------|
D|-------5-5-7-7-------5-5-7-7------5-5----------------------------------------------|
A|--5-5-----------5-5----------------------------9-9-10-10------9-9-10-10------------|
E|-------------------------------5-5--------7-7-------------7-7------------3-3-3-3---|

Verse 1: x4 
e|-----------------------------------------------------------------------------------|
B|-----------------------------------------------------------------------------------|
G|-----------------------------------------------------------------------------------|
D|-------5-5-7-7-------5-5-7-7------5-5----------------------------------------------|
A|--5-5-----------5-5----------------------------9-9-10-10------9-9-10-10------------|
E|-------------------------------5-5--------7-7-------------7-7------------3-3-3-3---|


Chorus 1: x2 
e|-----------------------------------------------------------------------------------|
B|-----------------------------------------------------------------------------------|
G|--7-7------------------------------------------------------------------------------|
D|--7-7---7-9---5-5---5-7---9-9---7-7---5-5------------------------------------------|
A|--5-5---7-9---5-5---5-7---9-9---7-7---5-5-------------10-9-7-5---------------------|
E|--------5-7---3-3---3-5---7-7---5-5---3-3------------------------------------------|

Break: x1 
e|-----------------------------------------------------------------------------------|
B|-----------------------------------------------------------------------------------|
G|-----------------------------------------------------------------------------------|
D|-------5-5-7-7------5-5-7-7--------5-5---------------------------------------------|
A|--5-5-----------5-5----------------------------------------------------------------|
E|--------------------------------5-5------------------------------------------------|

Verse 2: x4 
e|-----------------------------------------------------------------------------------|
B|-----------------------------------------------------------------------------------|
G|-----------------------------------------------------------------------------------|
D|-------5-5-7-7-------5-5-7-7------5-5----------------------------------------------|
A|--5-5-----------5-5----------------------------9-9-10-10------9-9-10-10------------|
E|-------------------------------5-5--------7-7-------------7-7------------3-3-3-3---|

Chorus 2: x2
e|-----------------------------------------------------------------------------------|
B|-----------------------------------------------------------------------------------|
G|--7-7------------------------------------------------------------------------------|
D|--7-7---7-9---5-5---5-7---9-9---7-7---5-5------------------------------------------|
A|--5-5---7-9---5-5---5-7---9-9---7-7---5-5-------------10-9-7-5---------------------|
E|--------5-7---3-3---3-5---7-7---5-5---3-3------------------------------------------|


Bridge: x1
e|-----------------------------------------------------------------------------------|
B|-----------------------------------------------------------------------------------|
G|--7-7------------------------------------------------------------------------------|
D|--7-7---7-9---5-5---5-7---9-9---7-7---5-5------------------------------------------|
A|--5-5---7-9---5-5---5-7---9-9---7-7---5-5-------------10-9-7-5---------------------|
E|--------5-7---3-3---3-5---7-7---5-5---3-3------------------------------------------|

Second guitar plays this in the background 4 times
e|------------0----------------------------------------------------------------------|
B|--5----------------------5---------------5/6\5-------------------------------------|
G|------5----------5-----------5-----------------------------------------------------|
D|-----------------------------------------------------------------------------------|
A|-----------------------------------------------------------------------------------|
E|-----------------------------------------------------------------------------------|

Chorus 3: x4
e|-----------------------------------------------------------------------------------|
B|-----------------------------------------------------------------------------------|
G|--7-7------------------------------------------------------------------------------|
D|--7-7---7-9---5-5---5-7---9-9---7-7---5-5------------------------------------------|
A|--5-5---7-9---5-5---5-7---9-9---7-7---5-5-------------10-9-7-5---------------------|
E|--------5-7---3-3---3-5---7-7---5-5---3-3------------------------------------------|


Second guitar plays this in the background 8 times after playing chorus 3 twice
e|------------0----------------------------------------------------------------------|
B|--5----------------------5---------------5/6\5-------------------------------------|
G|------5----------5-----------5-----------------------------------------------------|
D|-----------------------------------------------------------------------------------|
A|-----------------------------------------------------------------------------------|
E|-----------------------------------------------------------------------------------|
Tap to rate this tab
 
# A B C D E F G H I J K L M N O P Q R S T U V W X Y Z