Song name
# A B C D E F G H I J K L M N O P Q R S T U V W X Y Z

One Direction - Kiss You tab

Kiss You One Direction

Tabbed by: Guitartutfrom19

Kiss You guitar lesson: https://www.youtube.com/watch?v=FaXERUI9lSk

The verse, prechorus and chorus all us the same chords.

Intro:

e------------------------------------------------------------|
B------------------------------------------------------------|
G------------------------------------------------------------|
D--------6-6---4---------------------------------------------|
A----7-7----------------------7-7-7-6-6----------------------|
E-----------------5-5-----5-5--------------------------------|


Verse/Prechorus/Chorus: Listen to song to get beat.

       E        B       A       C#m       B
e------7--------7-------5--------4--------7---------------|
B------9--------7-------5--------5--------7---------------|
G------9--------8-------6--------6--------8---------------|
D------9--------9-------7--------6--------9---------------|
A------7--------9-------7--------4--------9---------------|
E---------------7-------5-----------------7---------------|


Bridge:

e---------------------------------------------------------|
B---------------------------------------------------------|
G---------------------------------------------------------|
D----2-2-2-------------2-2-2------------------------------|
A----------4-2-4-------------4-2-4------------------------|
E----------------0-0---------------0-0--------------------|

e---------------------------------------------------|
B---------------------------------------------------|
G---------------------------------------------------|
D---------------------------------------------------|
A---4-4-4-2----2-4-4-----4-4-4-2---2-4-4------------|
E-----------2--------------------2------------------|
Tap to rate this tab
# A B C D E F G H I J K L M N O P Q R S T U V W X Y Z