Guitaretab - guitar tabs
Song name
# A B C D E F G H I J K L M N O P Q R S T U V W X Y Z

One Dollar Short - Fear Of Falling tab

Artist: One Dollar Short
Song: Fear of Falling
Tabbed By: Tim Bryant
Email: theimmoralmonkey@hotmail.com



Intro: Gtr 1, 
|-------------------------------|--------------------------------| 
|-------------------------------|--------------------------------| 
|-------------------------------|--------------------------------| 
|-------------------------------|----------------5---------------| 
|7------------------------------|7-------3-------3-------5-------| 
|5------------------------------|5-------1---------------3-------| 

|-------------------------------|--------------------------------| 
|-------------------------------|--------------------------------| 
|-------------------------------|--------------------------------| 
|7-7777773-333333-------5-555555|7-7777773-333333--------5-555555| 
|5-5555551-1111113-333333-333333|5-5555551-1111113-3333333-333333| 
|----------------1-11111--------|----------------1-111111--------| 

    Bass fill two times 
--------------------------------|--------------------------------| 
--------------------------------|--------------------------------| 
--------------------------------|--------------------------------| 
7-7777773-333333--------5-555555|7-7777773-333333--------5-555555| 
5-5555551-1111113-3333333-333333|5-5555551-1111113-3333333-333333| 
----------------1-111111--------|----------------1-111111--------| 

|-------------------------------| 
|-------------------------------| 
|-------------------------------| 
|7------------------------------| 
|5------------------------------| 
|-------------------------------| 

  *  Intro: Gtr 2,               *    * 
|--------------------------------|-----------------------------------| 
|--------------------------------|-----------------------------------| 
|--10---------7------------------|--------------------------12/14----| 
|7-----7-9-10-------10-----------|--------10-9---------9/10-------12-| 
|---------------8-8----8-7-8-10--|----7/8------8-10-10---------------| 
|--------------------------------|8-8--------------------------------| 

--------------------------------------|---------------- 
--------------------------------------|---------------- 
---15----------12---------------------|---------------- 
12----12-14-15----------15------------|------------15-- 
------------------13-13----13-12-13-15|------12/13----- 
--------------------------------------|13-13----------- 

                *   *                  *   Bass Fill 
---------------------------|-------------------|-------------------| 
---------------------------|-------------------|-------------------| 
------------------17/19----|-------------------|-------------------| 
14----------14/15-------17-|12-12-1414-1515-14-|15-15-1414-1515-14-| 
---13-15-15----------------|-------------------|-------------------| 
---------------------------|-------------------|-------------------| 




-------------------|---------------------|--------------- 
-------------------|---------------------|--------------- 
-----------14------|------------17/19----|--------------- 
------1415----1514-|15-15-14/15-------17-|12------------- 
15-15--------------|---------------------|--------------- 
-------------------|---------------------|--------------- 
[ Tab from: http://www.guitaretab.com/o/one-dollar-short/120716.html ]
 * Verse Riff: Gtr 1,                                * 
|----------------------|----------------------|----------------------| 
|----------------------|----------------------|----------------------| 
|----------------------|----------------------|----------------------| 
|7--7-7-7777-7777-7777-|----------------------|7--7-7-7777-7777-7777-| 
|5--5-5-5555-5555-5555-|4--4-4-4444-4444-4444-|5--5-5-5555-5555-5555-| 
|----------------------|2--2-2-2222-2222-2222-|----------------------| 

|-------------------------| 
|-------------------------| 
|-------------------------| 
|-------------------------| 
|4--4-4-4444--4-4----2-2--| 
|2--2-2-2222--2-2----0-0--| 

 * Verse Riff Gtr 2,                               * 
|----------------------|----------------------|----------------------| 
|----------------------|----------------------|----------------------| 
|9--9-9-9999-9999-9999-|6--6-6-6666-6666-6666-|7--7-7-7777-7777-7777-| 
|7--7-7-7777-7777-7777-|7--7-7-7777-7777-7777-|7--7-7-7777-7777-7777-| 
|----------------------|----------------------|----------------------| 
|----------------------|----------------------|----------------------| 

|-------------------------| 
|-------------------------| 
|6--6-6-6666--7-7----9-9--| 
|7--7-7-7777--7-7----7-7--| 
|-------------------------| 
|-------------------------| 

 * Pre Chorus Gtr 1,                   * 
|---------------|-----------------|-----------------|------------------| 
|---------------|-----------------|-----------------|------------------| 
|---------------|-----------------|-----------------|------------------| 
|7-777777777777-|-----------------|7-77777777777777-|------------------| 
|5-555555555555-|4-44444444444444-|5-55555555555555-|4-444444-2-222222-| 
|---------------|2-22222222222222-|-----------------|2-222222-0-000000-| 

 * Pre Chorus Gtr 2, ( ! means 11th fret / @ MEANS 13th fret ) 
 2nd Time, do this harmony at end of riff. 
|---------------|-----------------|-----------------| 
|---------------|-----------------|-----------------| 
|---------------|-----------------|-----------------| 
|7-777777777777-|!-!!!!!!!!!!!!!!-|7-77777777777777-| 
|5-555555555555-|9-99999999999999-|5-55555555555555-| 
|---------------|9-99999999999999-|5-55555555555555-| 

|-------------------|--------------------| 
|-------------------|--------------------| 
|!-!!!!!!--@-@@@@@@-|@-@@@@@@--4-444444--| 
|-------------------|--------------------| 
|9-999999--!-!!!!!!-|!-!!!!!!--2-222222--| 
|-------------------|--------------------| 



  Chorus: Both Gtr`s           Intro Again 
|-----------------------------------------| 
|-----------------------------------------| 
|----------4-4444444----------------------| 
|---------------------7-777777------------| 
|7-777777--2-2222222--5-555555--7-7777777-| 
|5-555555--0-0000000------------4-4444444-| 

   Verse Again  Chorus Again 
|-------------------------------------|------------|------------- 
|-------------------------------------|------------|------------- 
|----------4-444444--7-779999!!!!9999-|------------|------------- 
|-------------------------------------|------------|------------- 
|7-777777--2-222222--5-55777799997777-|------------|------------- 
|5-555555--0-000000-------------------|------------|------------- 

 Outro Gtr 2,                    # means 12th fret 
|-----------|------------|-----------|-----------| 
|-----------|------------|-----------|-----------| 
|-----------|------------|-----------|-----------| 
|7-77-7-9-!-|-7-77-7-9-!-|7-77-7-9-!-|###-999-77-| 
|-----------|------------|-----------|-----------| 
|-----------|------------|-----------|-----------| 
  
thatís it people enjoy. Email comments corrections other ods tabs to 
theimmoralmonkey@hotmail.com
Related for Fear Of Falling tab
Fear Of Falling chords by One Dollar Short