Song name
# A B C D E F G H I J K L M N O P Q R S T U V W X Y Z

One Drop - Dont Drag Me Down tab

Tabbed by: Robdukeit24
Email: zoltron24@gmail.com
                                  Don't Drag Me Down
                                      One Drop
This is their official site http://www.onedropreggae.com/index.php
Another great band from San Diego. Enjoy.

Intro: With a delay effect
e|---------------|
B|--4-----8------|
G|--5-----8--7---|
D|--5--6--8--8---|
A|--3--6--6--8---|
E|-----4-----6---|
Solo in the beginning.    
e|---------------------------------------------------------------------------|
B|--8------------------8--8-8-8-8----8---------------------------------------|
G|----8--------8--8h10------------10---10-10-10-10-10-10-10-10---------------|
D|------10-8-10--------------------------------------------------------------|
A|---------------------------------------------------------------------------|
E|---------------------------------------------------------------------------|

e|---------------------------------------------------------------------------|
B|--8------------------8--8-8-8-8----8---------------------------------------|
G|----8--------8--8h10------------10---10-10-10-10-10-10-10-10---------------|
D|------10-8-10--------------------------------------------------------------|
A|---------------------------------------------------------------------------|
E|---------------------------------------------------------------------------


| /  slide up
| \  slide down
| h  hammer-on
| p  pull-off
| ~  vibrato
| +  harmonic
| x  Mute note
Tap to rate this tab
 
# A B C D E F G H I J K L M N O P Q R S T U V W X Y Z