Song name
# A B C D E F G H I J K L M N O P Q R S T U V W X Y Z

One Eskimo - Hometime tab

Artist:   One eskimO
Song:     Hometime

(song on the Toyota Harmony Ad)

http://www.oneeskimo.co.uk/




CAPO on 4th Fret



    VERSE

e|--3---2--2-----------------3---2--2--------------|
B|------------0----2-------------------0----2------|
G|--------------0-----2--2---------------0-----2---|
D|--2--2-----2---2-----2-----2--2-----2---2--------|
A|-------------------------------------------------|
E|-------------------------------------------------|

e|------------------------------------------------------|
B|---3----3-----3-----3------0----2-----0-----2---------|
G|-----4-----4-----4-----4-----2-----2-----2-----2--2---|
D|--4---4-----4-----4-------2---2-----2-----2-----2-----|
A|------------------------------------------------------|
E|------------------------------------------------------|


near chorus, skip very last note and play the 2nd half again



    CHORUS

e|----------------------------------------------------|
B|--1--1--0-----1-----0-----------0-----------0-------|
G|--2---2----2-----2-----2---2----------2-------------|
D|--3---------3-----3----------2-----2-----2-----2----|
A|--3-----------------------0---0-----0-----0---------|
E|----------------------------------------------------|



the actual chord strummed is FM7 13221x (2s replace 3s on D string)
shown way sounds better when alone and the acoustic version plays this way



end with:
 ------------|
 ------------|
 --2-----2---|
 -----2------|
 ------0-----|
 ------------|




Tabbed by NintEndO
Tap to rate this tab
 
# A B C D E F G H I J K L M N O P Q R S T U V W X Y Z