Song name
# A B C D E F G H I J K L M N O P Q R S T U V W X Y Z

One Eskimo - Kandi tab

Help us improve GuitareTab! Take a short survey!
One eskimO  --  Kandi


---------
Capo on 6
---------


   Verse

e|--------------------------------|
B|--------------------------0-----|
G|---------1------2p1h2-----------|
D|---------2----------------------|
A|--------------------------------|
E|---0--0-------0--------0--------|



   Chorus

e|---------------------------------------------------------|
B|--------------------------0-------------------------0----|
G|---------1------2p1h2--------------1------2p1h2----------|
D|---------2-------------------------2---------------------|
A|---------------------------------------------------------|
E|---0--0-------0--------0-----0--0-------0--------0-------|


e|--------------------------0------------------------------|
B|---------2------3p2h3--------------2------3p2h3-----5/---|
G|---------2-------------------------2---------------------|
D|---------------------------------------------------------|
A|---0--0-------0--------0-----0--0-------0--------0-------|
E|---------------------------------------------------------|



   Verse 2 Variation

e|--------------------------------|
B|--------------------------0-----|
G|---------1------2p1h2-----------|
D|---------0----------------------|
A|--------------------------------|
E|---0--0-------0--------0--------|



   Bridge

e|----------------------------------------------------------|
B|---------3------2---2-------------------------------0-----|
G|--------------------------4/-------1------2p1h2-----------|
D|---0------------------------------------------------------|
A|----------------------------------------------------------|
E|---0--0-------0--------0--------0-------0--------0--------|


e|----------------------------------------------------------------|
B|---------3------2---2-------5-----5-----5-----5------5---5/-----|
G|----------------------------------------------------------------|
D|--------------------------------2-----2-----2-----2----2--------|
A|----------------------------------------------------------------|
E|---0--0-------0---------0-----0-----0-----0-----0---------------|



   Chorus 3 Variation

e|---------------------------------------------------------|
B|--------------------------0-------------------------0----|
G|---------1------2p1h2--------------1------2p1h2----------|
D|---------2-------------------------2---------------------|
A|---------------------------------------------------------|
E|---0--0-------0--------0-----0--0-------0--------0-------|


e|--------------------------0------5-----5-----5-----5-----5/----|
B|---------2------3p2h3------------5-----5-----5-----5-----5/----|
G|---------2---------------------2-----2-----2-----2-----2-------|
D|---------------------------------------------------------------|
A|---0--0-------0--------0-----0-----0-----0-----0-----0---------|
E|---------------------------------------------------------------|







   Chorus Live (sometimes played like this in live shows)

e|---------------------------------------------------------|
B|---------0------2--2-----3---------0------2--2-----3-----|
G|---------1------2--2-----4---------1------2--2-----4-----|
D|---------------------------------------------------------|
A|---------------------------------------------------------|
E|---0--0-------0-------0------0--0-------0-------0--------|


e|--------------------------0-------------------------0----|
B|---------2------3p2h3--------------2------3p2h3----------|
G|---------2-------------------------2---------------------|
D|---------------------------------------------------------|
A|---0--0-------0--------0-----0--0-------0--------0-------|
E|---------------------------------------------------------|





Tabbed by NintEndO
Related for Kandi tab