Song name
# A B C D E F G H I J K L M N O P Q R S T U V W X Y Z

One Eskimo - High Low tab

One eskimO - High Low

Riff A (Play 4x for Intro, then another 8x for Verse)

E|-2-4---0----------|-----------0------|-------0----------|-----------0------|
B|-----0------------|-----0-4-----0----|-----0-----0------|-----0-4-----0----|
G|------------------|------------------|------------------|------------------|
D|-2-------2---4----|---------------2--|-------------2----|---------------2--|
A|------------------|-2-------2--------|-0--------0-------|-2-------2--------|
E|------------------|------------------|------------------|------------------|

Riff B (Play 1x, Riff A 1x, Riff B 1x, Riff A 1x)

E|-------0----------|-----------0------|-------0----------|-----------0------|
B|-----2-----2------|-----0-4-----0----|-----2-----2------|-----0-4-----0----|
G|------------------|------------------|------------------|------------------|
D|-------------2----|---------------2--|-------------2----|---------------2--|
A|-4-------4-----4--|-2-------2--------|-0-------0-----4--|-2-------2--------|
E|------------------|------------------|------------------|------------------|

Bridge

E|-0-2-------2------|-0---------0------|-----------0-2----|
B|-----0-------0----|-----0-------0----|-4---0-----0------|
G|------------------|------------------|------------------|
D|------------------|------------------|------------------|
A|-2-----2-------2--|-2-----2-------2--|-2-----2-----2----|
E|------------------|------------------|------------------|

Riff A (x8)

Riff B, Riff A, Riff B, Riff A

Bridge (variation)

E|-0-2-------2------|-0---------0------|-------------0----|
B|-----0-------0----|-----0-------0----|-4---0-----4------|
G|------------------|------------------|-----------4------|
D|------------------|------------------|------------------|
A|-2-----2-------2--|-2-----2-------2--|-2-----2-----2----|
E|------------------|------------------|------------------|

Outro					slow . . .

E|-2-4---0----------|-----------0------|------------------|------------------|-----0-2---------|
B|-----0------------|-----0-4-----0----|-----0-2----------|-----2-4----------|---0-------------|
G|------------------|------------------|------------------|------------------|-----------------|
D|-2-------2---4----|------------------|---2--------------|---4--------------|-2---------------|
A|------------------|-2-------2--------|-0----------------|-2----------------|-----------------|
E|------------------|------------------|------------------|------------------|-----------------|
Tap to rate this tab
# A B C D E F G H I J K L M N O P Q R S T U V W X Y Z