Song name
# A B C D E F G H I J K L M N O P Q R S T U V W X Y Z

One-eyed Doll - Nudie Bar tab

-------------------------------------------------------------------------------
			     Nudie Bar - One-Eyed Doll
-------------------------------------------------------------------------------
Tabbed by: skorpion404

Tuning:DADGBe

INTRO RIFF (play four times)
e|------------|
B|------------|
G|------------|
D|-3210321-0--|
A|-3210321-0--|
D|-3210321-0--|

VERSE (x4)
e|------------------|
B|------------------|
G|------------------|
D|-00000000-75-3-0--|            D-0-
A|-00000000-75-3-0--|            A-0-
D|-00000000-75-3-0--| (bend last D-0- with whammy bar)
 (very quickly off the 7)

-INTRO RIFF x4

-VERSE

-INTRO RIFF (x4)

CHORUS (rhythm's tricky but it's something like this)
e|---------------------------------------------------------------------------|
B|---------------------------------------------------------------------------|
G|---------------------------------------------------------------------------|
D|-12121212-3333--12121212-5555\3--12121212-3--0-3-65----1-------------------|
A|-12121212-3333--12121212-5555\3--12121212-3--0-3-65----1-------------------|
D|-12121212-3333--12121212-5555\3--12121212-3--0-3-65----1-------------------|
  (=12th fret four times)

BRDIGE
e|-------------------|
B|-------------------|
G|-------------------|
D|-------------------|
A|-------------------|
D|-0000000000000000--|

-INTRO RIFF (x4)

-VERSE

-INTRO RIFF (x4)

-CHORUS

-BRIDGE2
e|-------------------------------------------------|
B|-------------------------------------------------|
G|-------------------------------------------------|
D|-----------------1-------------12-------------1--|
A|-----------------1-------------12-------------1--|
D|-00000000000000001-00000000000012-0000000000001--|
                           (that's a twelve)

Then this a few times:
e|-------|               e|---|
B|-------|               B|---|
G|-------|  ending with: G|---|
D|-3210--|               D|-0-|
A|-3210--|               A|-0-|
D|-3210--|               D|-0-|

-CHORUS 

END: "You're gonna die today!  HEY!"
e|--------------------------------------|
B|--------------------------------------|
G|--------------------------------------|
D|------------------------------12------|
A|------------------------------12------|
D|------------------------------12------|

LYRICS:
Here I am alone 
Depressed and waiting by the phone 
I'm doubting my beauty 
My boyfriend's out at the nudie 

Gonna rig up some propane tanks 
Gonna light the fuse and kill some skanks 
Gonna stand back and watch it burn 
Maybe that will make him learn 

Nudie Bar 
You stole my boyfriend 

Nudie Bar 
You're gonna pay 

Nudie Bar 
All you lousy boyfriends 

Yeah yeah yeah 
You're going to die today 

I've completed my mission 
And now I'm rotting in prison 
But things have worked out in the end 
Cause I've got a new girlfriend
----

:O This one was harder to tab, but i'm pretty confident with it :)

Lots of love to Kimberly and One-Eyed Doll. You guys rock!

Look at One-Eyed Doll's music at http://music.oneeyeddoll.com/

and don't forget to check out their AWESOME new music vid.:

http://www.youtube.com/watch?v=ekcsi21Coss


ROCK ON!


************************************

| /   slide up
| \   slide down
| h   hammer-on
| p   pull-off
| ~   vibrato
| +   harmonic
| x   Mute note
| b   Bend
| pb  Pre-bend
| br  Bend release
| pbr Pre-bend release
| brb Bend release bend

************************************
Tap to rate this tab
 
# A B C D E F G H I J K L M N O P Q R S T U V W X Y Z