Song name
# A B C D E F G H I J K L M N O P Q R S T U V W X Y Z

One-eyed Doll - I Love My Little Bus tab

Artist - One-Eyed Doll
Album - Hole
Song - I Love My Little Bus

tabbed by Mr.Mike (http://oneeyeddoll.com/user/912)


Drop D Tuning


Main Riff (repeat as necessary)
    
e|-------------------------------------------------------------------|
B|-------------------------------------------------------------------|
G|-------------------------------------------------------------------|
D|--0-0-0-2-2-3-3----0-0-0-2-2-3-3----0-0-0-2-2-3-3-5-5-7-7-6-6-5-5--|
A|--0-0-0-2-2-3-3----0-0-0-2-2-3-3----0-0-0-2-2-3-3-5-5-7-7-6-6-5-5--|
D|--0-0-0-2-2-3-3----0-0-0-2-2-3-3----0-0-0-2-2-3-3-5-5-7-7-6-6-5-5--|


e|----------------------------------------|
B|----------------------3----3----3-3333--|
G|----------------------2----2----2-2222--|
D|--0~----0~----0~------0----0----0-0000--|
A|--0~----0~----0~------------------------|
D|--0~----0~----0~------------------------|


Thats it!
Tap to rate this tab
 
# A B C D E F G H I J K L M N O P Q R S T U V W X Y Z