Song name
# A B C D E F G H I J K L M N O P Q R S T U V W X Y Z

One Fine Day - Damn Right tab

This is my first tab and i can't play it by myself ^^
Maybe you can ;)  
Try it :

   (C)    (Eb)  (G#)      (C)   (Eb)  (G#)   (Eb)

e--8--8--11-11-10-10-11-8----8--11-11-10-10-11-11-|
h--8--8--8--8--11-11-8--8----8--8--8--11-11-8--8--|
g--9--9--8--8--10-10-8--9----9--8--8--10-10-8--8--|
d--10-10-8--8--8--8--8--10---10-8--8--8--8--8--8--|
a--10-10----------------10---10-------------------|
E--8--8-----------------8----8--------------------|
                                                            

e--8--8--11-11-10-10-11-8----8--11-11-10-10-11----|
h--8--8--8--8--11-11-8--8----8--8--8--11-11-8-----|
g--9--9--8--8--10-10-8--9----9--8--8--10-10-8-----|
d--10-10-8--8--8--8--8--10---10-8--8--8--8--8-----|
a--10-10----------------10---10-------------------|
E--8--8-----------------8----8--------------------|



the rest you'll get later :D
Tap to rate this tab
# A B C D E F G H I J K L M N O P Q R S T U V W X Y Z