Song name
# A B C D E F G H I J K L M N O P Q R S T U V W X Y Z

One Night Only - Sweet Sugar tab

Here is the intro
The full tab is on its way (hopefully)
Capo 2nd fret
    
     G  
e|---3--3-/5/7\5--3-------------------------3--5--3------------------------|
B|---0--------------7--5--3--3--5--p0--5--7--------------------------------|
G|---0---------------------------------------------------------------------|
D|---0---------------------------------------------------------------------|
A|---2---------------------------------------------------------------------|
E|---3---------------------------------------------------------------------|

     G  
e|---3--3-/5/7\5--3----------------------------3-3-5-5-3-3-----------------|
B|---0--------------7--5--3--3--5--p0--5--7--7-----------------------------|
G|---0---------------------------------------------------------------------|
D|---0---------------------------------------------------------------------|
A|---2---------------------------------------------------------------------|
E|---3---------------------------------------------------------------------|

Tap to rate this tab
# A B C D E F G H I J K L M N O P Q R S T U V W X Y Z