Song name
# A B C D E F G H I J K L M N O P Q R S T U V W X Y Z

One Night Only - Time tab

As there are already perfect chords for this song i have only decided to tab the 
riffs, which are very easy to play!

Intro:
Part 1:

e|--------------------------------------------------------------------------|
B|--------------------------------------------------------------------------|
G|--12---12---12---12---14---14---14---14---11---11---11---11---12---12---12|
D|----12---12---12---12---12---12---12---12---12---12---12---12---12---12---|
A|--------------------------------------------------------------------------|
E|--------------------------------------------------------------------------|

e|--------------------------------------------------------------------------|
B|--------------------------------------------------------------------------|
G|----12-11-12---12---12---12---14---14---14---14---11---11---11---11--12[x7]
D|--12--------12---12---12---12---12---12---12---12---12---12---12---12-----|
A|--------------------------------------------------------------------------|
E|--------------------------------------------------------------------------|

Part 2: (this is repeated many time during the song)

e|----------------------------------------------------------------------|
B|----------------------------------------------------------------------|
G|--11-11-11-12-12-12-------------------------11-11-11-12-12-12-16[x8]--|
D|--------------------9-9-12-12-12-9-12-9-12-9--------------------------|[x2]
A|----------------------------------------------------------------------|
E|----------------------------------------------------------------------|

Tap to rate this tab
# A B C D E F G H I J K L M N O P Q R S T U V W X Y Z