Song name
# A B C D E F G H I J K L M N O P Q R S T U V W X Y Z

One Night Only - Say You Dont Want It tab

Hey everybody, this is my first ever tab! When i went to learn this song ,you 
needed a Capo, so heres how i play it without a Capo.

Standard Tuning.

E----------------------------------------------------------------|
B-5-5-5-4-4-4---------------------5-5-5-4-4-4--------------------|
G-------------6-6-6-6-6-6-6-6-6-6-------------6-6-4-4-4-4-4-4-4-4|
D----------------------------------------------------------------|
A----------------------------------------------------------------|
E----------------------------------------------------------------|

E----------------------------------------------------------------|
B-5-5-5-4-4-4---------------------5-5-5-4-4-4--------------------|
G-------------6-6-6-6-6-6-6-6-4-6-------------6-6-4-4-4-4-4-4-4-4|
D----------------------------------------------------------------|
A----------------------------------------------------------------|
E----------------------------------------------------------------|
Tap to rate this tab
 
# A B C D E F G H I J K L M N O P Q R S T U V W X Y Z