Song name
# A B C D E F G H I J K L M N O P Q R S T U V W X Y Z

One Night Only - Say You Dont Want It Acoustic tab

==============================================
One Night Only - Say You Dont Want It Acoustic
==============================================

This is an acoustic performance which can be found here at:
http://www.youtube.com/watch?v=9p9DomvbyiY

H = Harmonics

Tabbed by Yas. Hope You Enjoy!
_________________________________________________________________________


Intro: Repeated until Verse

               H   H
e|-----------------------------------------------------------------------|
B|-----------(12)--------------------------------------------------------|
G|----9---0------(12)--0---0---0---0---7---7---7---7---2---2---2---2-----|
D|-----------------------------------------------------------------------|
A|-----------------------------------------------------------------------|
E|--8---8---8---8----3---3---3---3--/6---6---6---6---1---1---1---1-------|

Verse/Chorus:

e|-----------------------------------------------------------------------|
B|-----------------------------------------------------------------------|
G|----9---9---9---9---3---3---3---3---7---7---7---7---2---2---2---2------|
D|-----------------------------------------------------------------------|
A|-----------------------------------------------------------------------|
E|--8---8---8---8---3---3---3---3--/6---6---6---6---1---1---1---1--------|


Lyrics:

Talk all the talk with a poet's style
Tongue like electric, eyes like a child
Buy all your wives and the classic cars
Live like a savior, live like the stars
Talk all the talk with a model's smile
Tongue like electric, eyes like a child
Buy all your highs and the classic cars
Die on the front page, just like the stars

The big screens, the plastic-made dreams
Say you don't want it, say you don't want it
It's our world, the picture-book girls
Say you don't want it, say you don't want it
Don't you ask me if it's love my dear
Love don't really mean a thing round here
The fake scenes the plastic-made dreams
Say you don't want it, say you don't want it

Pace all the rooms with a jealous style
Tongue like electric, eyes like a child
Paint all your soul with the grand designs
Reach like a savior, your heart on the line
Talk all the talk with a model's smile
Tongue like electric, eyes like a child
Buy all your highs and the classic cars
Die on the front page, just like the stars

The big screens, the plastic-made dreams
Say you don't want it, say you don't want it
It's our world, the picture-book girls
Say you don't want it, say you don't want it
Don't you ask me if it's love my dear
Love don't really mean a thing round here
The fake scenes the plastic-made dreams
Say you don't want it, say you don't want it

================
Comments welcome
================
Tap to rate this tab
 
# A B C D E F G H I J K L M N O P Q R S T U V W X Y Z